I Ain't Superstitous
Transcribed by Christopher Heer
1/4 step down tuning

Intro
-----------------------------------------------------
----5-7b8-------5-7b8-7-7---5-7b8--------5-7b8-7b8b7-
--6-------64--6-----------6-------6-4--6-------------
-----------------------------------------------------
-----------------------------------------------------
-----------------------------------------------------

Verse
-----------------------------------------------------------------------
-----------------------------------------------------------------------
-----------------------------------------------------------------------
-----1234-20-------1234-20--------------1234-20-------1234-20----------
-2-2--------2--2-2--------2-4--4-4--2-2--------2--2-2--------2-4--4-4--
----------------------------2--2-2-----------------------------2--2-2--
ph ph ph ph

------------------------------------
------------------------------------
------------------------------------
-----3456-42-------1234-20----------
-4-4--------4--2-2--------2-4--4-4--
----------------------------2--2-2--
ph ph

Chorus
---------------------------------
---------------------------------
---------------------------------
-4---2-4---2-4---2-4---2---------
-2-4-0-2-4-0-2-4-0-2-4-0-4--4-4--
---2-----2-----2-----2---2--2-2--

Interlude
------------------------------------------------------------------------
------------------------------------------------------------------------
------------------------------------------------------------------------
-2-----------------2----------------------------------------------------
-0-000000000000000-0-000000000000000-2-----------------2----------------
-------------------------------------0-000000000000000-0-000000000000000

------------------------------------------------------------------------
------------------------------------------------------------------------
------------------------------------------------------------------------
-4-----------------2----------------------------------------------------
-2-222222222222222-0-000000000000000-2-----------------2----------------
-------------------------------------0-000000000000000-0-000000000000000

Outro
---------------------------------------
---------------------------------------
---------------------------------------
---------------------------------------
-4--4-4--4-4--4-4--4-4--4-4--4-4--4-4--
-2--2-2--2-2--2-2--2-2--2-2--2-2--2-2--


Ваше мнение



Капча

Рекомендуем