Band: Megadeth
Song: Hangar 18 (bassline)
Taken from: Guitar For The Practicing Musician February 1992, Vol.9 No.4
Tabbed by:Ian Mullins 14:50 PM 09/09/97
Homepage(s): The Megadeth Guitar and Bass Tab Archive
http://www.geocities.com/SunsetStrip/Palms/1163/
e-mail: [email protected]
or
Ian's Canadian Guitar and Bass Tab Page
http://www.geocities.com/SunsetStrip/Palms/2101/
Tuning:
Dropped D (E=>D)
Moderately Fast Rock: 160 b.p.m.
Intro
|-----------------------------------|-----------------------------------|
|-----------------------------------|-----------------------------------|
|-----------------------------------|-----------------------------------|
|---7---O---O---O---O---O---O---O---|---O---O---O---O---O---O---O---O---|
|-----------------------------------|-----------------------------------|
|-----------------------------------|-----------------------------------|
|-----------------------------------|-----------------------------------|
|---8---O---O---O---O---O---O---O---|---O---O---O---O---O---O---O---O---|
|-----------------------------------|-----------------------------------|
|-----------------------------------|-----------------------------------|
|-----------------------------------|-----------------------------------|
|---9---O---O---O---O---O---O---O---|---O---O---O---O---O---O---O---O---|
|-----------------------------------|-----------------------------------|
|-----------------------------------|-----------------------------------|
|-----------------------------------|-----------------------------------|
|--1O---O---O---O---O---O---O---O---|---O---O---O---O---O---O---O---O---|
|-----------------------------------|-----------------------------------|
|-----------------------------------|-----------------------------------|
|-----------------------------------|-----------------------------------|
|--12---O---O---O---O---O---O---O---|---O---O---O---O---O---O---O---O---|
|-----------------------------------|-----------------------------------|
|-----------------------------------|-----------------------------------|
|-----------------------------------|-----------------------------------|
|--12---O---O---O---O---O---O---O---|---O---O---O---O---O---O---O---O---|
|-----------------------------------|-----------------------------------|
|-----------------------------------|-----------------------------------|
|---------------------------O--16--|--17--17--17--17--17--17-----------|
|--12---O---O---O---O---O-----------|--------------------------19------|
|-----------------------------------|-----------------------------------|
|------7----------------------------|-----(7)---------------------------|
|-----------------------------------|-----------------------------------|
|------7----------------------------|-----(7)---------------------------|
|-----------------------------------|-----------------------------------|
|------8----------------------------|-----(8)---------------------------|
|-----------------------------------|-----------------------------------|
|------8----------------------------|-----(8)---------------------------|
|-----------------------------------|-----------------------------------|
|------9----------------------------|-----(9)---------------------------|
|-----------------------------------|-----------------------------------|
|------9----------------------------|-----(9)---------------------------|
|-----------------------------------|-----------------------------------|
|-----1O----------------------------|----(1O)---------------------------|
|-----------------------------------|-----------------------------------|
|-----1O----------------------------|----(1O)---------------------------|
|-----------------------------------|-----------------------------------|
|-----------------------------------|-----------------------------------|
|-----------------------------------|-----------------------------------|
|---7--------7-/-12---12---12---O---|---(O)-----------O---O-------------|
|-----------------------------------|-----------------------------------|
|-----------------------------------|-----------------------------------|
|-----------------------------------|-----------------------------------|
|---8--------8-/-12---12---12---O---|---(O)-----------O---O-------------|
|-----------------------------------|-----------------------------------|
|-----------------------------------|-----------------------------------|
|-----------------------------------|-----------------------------------|
|---9--------9-/-12---12---12---O---|---(O)-----------O---O-------------|
|-----------------------------------|-----------------------------------|
|-----------------------------------|---3---2---O-----------------------|
|---5-----------5---7---7---7-------|---------------3---1---O-----------|
|-------------------------------O---|---------------------------5---3---|
Double-time feel
|-----------------------------------|-----------------------------------|
|-----------------------------------|-----------------------------------|
|-------------/-5-------------------|-----------------------------------|
|---7---O---O-------O---O---O---O---|---O---O---O---O---O---O---O---O---|
|-----------------------------------|-----------------------------------|
|-----------------------------------|-----------------------------------|
|-----------------------------------|-----------------------------------|
|---O---O---O---O---O---O---O---O---|---O---O---O---O---O---O---O---O---|
|-----------------------------------|-----------------------------------|
|-----------------------------------|-----------------------------------|
|-------------/-5-------------------|-----------------------------------|
|---7---O---O-------O---O---O---O---|---O---O---O---O---O---O---O---O---|
|-----------------------------------|-----------------------------------|
|-----------------------------------|-----------------------------------|
|---2---------/-5-------------------|-----------------------------------|
|-------O---O-------O---O---O---O---|---O---O---O---O---O---O---O---O---|
First Verse
Wel-come to__ our for - tress tall_____ ....
|-----------------------------------|-----------------------------------|
|-----------------------------------|-----------------------------------|
|---------------5-------------------|-----------------------------------|
|---7---O---O-------O---O---O---O---|---O---O---O---O---O---O---O---O---|
|-----------------------------------|-----------------------------------|
|-----------------------------------|-----------------------------------|
|-----------------------------------|-----------------------------------|
|---O---O---O---O---O---O---O---O---|---O---O---O---O---O---O---O---O---|
|-----------------------------------|-----------------------------------|
|-----------------------------------|-----------------------------------|
|---------------5-------------------|-----------------------------------|
|---7---O---O-------O---O---O---O---|---O---O---O---O---O---O---O---O---|
|-----------------------------------|-----------------------------------|
|-----------------------------------|-----------------------------------|
|---2-----------5-------------------|-----------------------------------|
|-------O---O-------O---O---O---O---|---O---O---O---O---O---O---O---O---|
|-----------------------------------|-----------------------------------|
|-----------------------------------|-----------------------------------|
|---------------5-------------------|---------------5-------------------|
|---7---O---O-------O---O---O---O---|---8---O---O-------O---O---O---O---|
Pos - si -
|-----------------------------------|-----------------------------------|
|-----------------------------------|-----------------------------------|
|---------------5-------------------|---3-----------5-------------------|
|---9---O---O-------O---O---O---O---|-------O---O-------O---O---O---O---|
Chorus
bly I've__ seen too much... Han - gar
|-----------------------------------|-----------------------------------|
|-----------------------------------|-----------------------------------|
|---5-----O------------------------|---5-----1------------------------|
|---------------------------O--O----|---------------------------O---O---|
Eight - een,__ I know too much__
|-----------------------------------|-----------------------------------|
|-----------------------------------|-----------------------------1O---|
|---5------2-----------------------|---5---3-------3---(3)-/-1O--------|
|---------------------------O--O----|-----------O-----------------------|
Guitar Solos I&II
|-----------------------------------|-----------------------------------|
|-----------------------------------|-----------------------------------|
|---O---O---O---O---O---O---O---O---|---1---1---1---1---1---1---1---1---|
|-----------------------------------|-----------------------------------|
____________________________________
|1.
|-----------------------------------|-----------------------------------|
|-----------------------------------|-----------------------------------|
|---2---2---2---2---2---2---2---2---|---1---1---1---1---1---1---1---1---|
|-----------------------------------|-----------------------------------|
____________________________________
|2.
|-----------------------------------|-----------------------------------|
|-----------------------------------|-----------------------------------|
|---3---3---3---3---3---3---3---3---|---O---O---O---O---O---O---O---O---|
|-----------------------------------|-----------------------------------|
|-----------------------------------|-----------------------------------|
|-----------------------------------|-----------------------------------|
|---1---1---1---1---1---1---1---1---|---2---2---2---2---2---2---2---2---|
|-----------------------------------|-----------------------------------|
2nd time to coda %
|-----------------------------------|-----------------------1-----------|
|-----------------------------------|---3---3---2---3---3-------3---O--|
|---1---1---1---1---1---1---1---1---|-----------------------------------|
|-----------------------------------|-----------------------------------|
|-----------3-----------3-------3---|-----------------------------------|
|---5---5-------5---5-------5-------|---3---2---O-----------------------|
|-----------------------------------|--------------2----1---O---1---2---|
|-----------------------------------|-----------------------------------|
|-----------------------------------|
|-----------------------------------|
|---3-------------------------------|
|-----------------------------------|
% Coda
|-----------------------1-----------|-----------------------------------|
|-----------2---3---3-------3--O---|-----------------------------------|
|---O---O---------------------------|---1---1---1---1---1---1---1---1---|
|-----------------------------------|-----------------------------------|
|-----------------------------------|-----------------------------------|
|---3---2---O-----------------------|-------2-------2---2-------2-------|
|--------------2----1---O---1---2---|---3-------3-----------3-------3---|
|-----------------------------------|-----------------------------------|
|-----------------------------------|
|-----------------------------------|
|---4---4---4---4---4---4---4---4---|
|-----------------------------------|
Guitar Solo III
slower: 112 b.p.m.
|-----------------------------------|-----------------------------------|
|----------------3------------------|----------------3------------------|
|---5-5--5--5--5---5---5-5---6---5--|---5-5--5--5--5---5---5-5---6---5--|
|-----------------------------------|-----------------------------------|
|-----------------------------------|-----------------------------------|
|----------------3------------------|----------------3-------6--5--3----|
|---5-5--5--5--5---5---5-5---6---5--|---5-5--5--5--5---5--5-----------5-|
|-----------------------------------|-----------------------------------|
|-----------------------------------|-----------------------------------|
|----------------3------------------|----------------3------------------|
|---5-5--5--5--5---5---5-5---6---5--|---5-5--5--5--5---5---5-5---6---5--|
|-----------------------------------|-----------------------------------|
|-----------------------------------|-----------------------------------|
|----------------3------------------|------------------6-5-3--5-6-5-3--|
|---5-5--5--5--5---5---5-5---6---5--|--5-5---5---5--5-------------------|
|-----------------------------------|-----------------------------------|
|-----------------------------------|-----------------------------------|
|------------4--------------------5-|----------4------------------------|
|---------------------O---------5---|------------------O------3^P2^PO---|
|---2--3--4-----4--4---4--4--5-----|-2--3--4----4--4---4--2---------2-|
|-----------------------------------|------------------5-4-2---6-5-3----|
|------------4--------------------5-|----------4-------------3-------6-*|
|---------------------O---------5---|----------------------------------*|
|---2--3--4-----4--4---4--4--5-----|-2--3--4----4--4------------------|
P.M.---------------| P.M.---------------|
|-----------------------------------|-----------------------------------|
|-----------------------------------|-----------------------------------|
|-------------O---------------------|-------------O---------------------|
|---5-4-2-4-5---5-4--45--45--45--|---5-4-2-4-5---5-4--45--45--45--|
P.M.---------------| P.M.---------------|
|-----------------------------------|-----------------------------------|
|-----------------------------------|-----------------------------------|
|-------------O---------------------|-------------O---------------------|
|---5-4-2-4-5---5-4--45--45--45--|---5-4-2-4-5---5-4--45--45--45--|
Guitar solos IV - VIII
|-----------------------------------|-----------------------------------|
|------------4--------------------5-|----------4------------------------|
|---------------------O---------5---|------------------O------3^P2^PO---|
|---2--3--4-----4--4---4--4--5-----|-2--3--4----4--4---4--2---------2-|
|-----------------------------------|------------------5-4-2---6-5-3----|
|------------4--------------------5-|----------4-------------3-------6--|
|---------------------O---------5---|-----------------------------------|
|---2--3--4-----4--4---4--4--5-----|-2--3--4----4--4------------------|
_________________________________________________________________________
|1. - 4.
|P.M.--------------| P.M.---------------|
|-----------------------------------|-----------------------------------|
|-----------------------------------|-----------------------------------|
|-------------O---------------------|-------------O---------------------|
|---5-4-2-4-5---5-4--45--45--45--|---5-4-2-4-5---5-4--45--45--45--|
________________________________________________________________________
|P.M.--------------| P.M.---------------| |
|-----------------------------------|-----------------------------------|
|-----------------------------------|----------------------------------*|
|-------------O---------------------|-------------O--------------------*|
|---5-4-2-4-5---5-4--45--45--45--|---5-4-2-4-5---5-4--45--45--45--|
____________________________________
|
|-----------------------------------|-----------------------------------|
|------------4--------------------5-|----------4------------------------|
|---------------------O---------5---|------------------O------3^P2^PO---|
|---2--3--4-----4--4---4--4--5-----|-2--3--4----4--4---4--2---------2-|
|-----------------------------------|------------------5-4-2---6-5-3----|
|------------4--------------------5-|----------4-------------3-------6--|
|---------------------O---------5---|-----------------------------------|
|---2--3--4-----4--4---4--4--5-----|-2--3--4----4--4------------------|
P.M.---------------|
|----------------|------------------|-----------------------------------|
|----------------|------------------|-----------------------------------|
|----------------|------------------|-------------O---------------------|
|---5------------|---(5)------------|---5-4-2-4-5---5-4--45--45--45--|
|-----------------------------------|
|-----------------------------------|
|-----------------------------------|
|---4---(4)--2---------------------|
That's it.
Any problems, comments, suggestions, submissions?
The Megadeth Guitar and Bass Tab Archive
http://www.geocities.com/SunsetStrip/Palms/1163/
e-mail: [email protected]


Ваше мнение



Капча

Рекомендуем