Here's the Verse, Pre-chorus, Chorus
and solo for Breadline, by Megadeth,
The best metal band evr incarnated.
Each measure as shown represents 2
actual measure if you wnt to be technical
about rhythm notation, so, it's all there
for you to work with, and lok for the
outro and the part for the other guitar
in the solo, to be posted within the next
couple of days.

Breadline
Megadeth
Tempo - 126

Riff A (Verse):
e|-|--------------------------------|
B|-|--------------------------------|
G|-|--------------------------------|
D|-|----7-----6-------6-------4-----|
A|-|--7-----7-----6-------6-----6---|
E|-|0-----0-----0-------0---------0-|

e|-|--------------------------------|
B|-|--------------------------------|
G|-|--------------------0---2-0-----|
D|-|----5-----4-------2---2-----2---|
A|-|--5-----5-----4---------------4-|
E|-|0-----0-----0-------------------|

Riff B (Pre Chorus):
e|-|--------------------------------|
B|-|--------------------------------|
G|-|--------------------2-------0---|
D|-|----2-------0-----2-------2-----|
A|-|--2-------2---0-------3---------|
E|-|0-----0-3-----------------------| x3

e|-|--------------------------------|
B|-|--------------------------------|
G|-|--------------2-----------------|
D|-|----2-------0-2-----------------|
A|-|--2---2---2---0-----------------|
E|-|0-----0-3-----------------------|

Chorus:
e|-|--------------------------------|
B|-|--------------------------------|
G|-|--------------------------------|
D|-|9---9-----9---9-----9-----9-----|
A|-|7---7-----7---6-----6-----6---7-|
E|-|------------------------------5-|

e|-|--------------------------------|
B|-|--------------------------------|
G|-|--------------------------------|
D|-|--------------------------------|
A|-|7---7-----7---7---7---7---7-4-4-|
E|-|5---5-----4---5---7---5---4-2-0-|

e|-|--------------------------------|
B|-|--------------------------------|
G|-|--------------------------------|
D|-|--------------------------------|
A|-|4---4-----4--/7---7--/9---9---2-|
E|-|2---2-----2--/5---5--/7---7---0-|

e|-|--------------------------------|
B|-|--------------------------------|
G|-|--------------------------------|
D|-|--------------------------------|
A|-|2---2---5-5-5-5---5---7-----7\--|
E|-|0---0---3-3-3-3---3---5-----5\--|
PM---|

During last measure guitar 2 plays:
e|-|--------------------------------|
B|-|------------5-6b--5b--3b--------|
G|-|----------4---------------------|
D|-|-------/6-----------------------|
A|-|--------------------------------|
E|-|--------------------------------|

Solo:
e|-|--------------------------------|
B|-|--------------------------------|
G|-|--------------------------------|
D|-|----------4-4-4---4--h6---------|
A|-|--------------------------------|
E|-|----------------------------X\\\|

e|-|--------------------------------|
B|-|--------------------------------|
G|-|--------------------------------|
D|-|----------4-4-4--h6-------------|
A|-|----------------------7---6---7-|
E|-(X\\\\\\)------------------------|

e|-|--------------0-0-0-0-0-0-0-0-0-|
B|-|--------------5-5-4-4-2-2-0-0-0-|
G|-|------------------------------2-|
D|-|--------------------------------|
A|-(7)------------------------------|
E|-|--------------------------------|

e|-|0-------------------------------|
B|-|0-------------------------------|
G|-|2---------4-4-4-----------------|
D|-|------------------7-6-7---------|
A|-|--------------------------------|
E|-|--------------------------X\\\\\|

e|-|--------------------------------|
B|-|--------------------------------|
G|-|----------4-4-4--h6-------------|
D|-|----------------------7---6---4-|
A|-|--------------------------------|
E|-(X\\\\\\\\)----------------------|

e|-|---------------------/17--1614--|
B|-|------------------------------17|
G|-|-----/14--1311--11--11----------|
D|-(4)------------14----------------|
A|-|--------------------------------|
E|-|--------------------------------|

e|-|14----17------------------------|
B|-|17----20------22b-----22b22b22b-|
G|-|--------------------------------|
D|-|--------------------------------|
A|-|--------------------------------|
E|-|--------------------------------|
keep bending that last one while
guitar 1 plays the chorus riff

I'm running out of time here so I'll
post the outro and other guitar part
for the solo on a separate file.

I think you'll find this very
satisfactory.


Ваше мнение



Капча

Рекомендуем