A Secret Place
Transcribed By Christopher Heer
1 Whole Step Down
DGCAFD
Intro
-1-1-1-0--------------0--------1-1-1-0--3-335-1--------
-3-3-3-3--------3-3-3-3--------3-3-3-3--3-333-3--------
----------2-2-2-2-2-2----2-2-2-------------------2-2-2-
-------------------------------------------------------
-------------------------------------------------------
-------------------------------------------------------
Gtr 2: before end of riff
-------------
-------------
---5-55/7-7--
---5-55/7-7--
---3-33/5-5--
-------------
------------------------------------------------------
------------------------------------------------------
------------------------------------------------------
--7-----5-----3-----2---------------------------------
--7-----5-----3-----2---------------------------------
--5-----3-----1-----0---0-0-0-0-0-0-0-0-0-0-0-0-0-0-0-
Verse
-1-1-1-0--------------0--------1-1-1-0--3-335-1--------
-3-3-3-3--------3-3-3-3--------3-3-3-3--3-333-3--------
----------2-2-2-2-2-2----2-2-2-------------------2-2-2-
-------------------------------------------------------
-------------------------------------------------------
-------------------------------------------------------
Pre-Chorus (1st & 3rd)
Gtr 2: before end of riff
-------------
-------------
---5-55/7-7--
---5-55/7-7--
---3-33/5-5--
-------------
------------------------------------------------------
------------------------------------------------------
------------------------------------------------------
--7-----5-----3-----2---------------------------------
--7-----5-----3-----2---------------------------------
--5-----3-----1-----0---0-0-0-0-0-0-0-0-0-0-0-0-0-0-0-
Pre-Chorus(2nd)
Gtr 2: before end of riff
-------------
-------------
---5-55/7-7--
---5-55/7-7--
---3-33/5-5--
-------------
------------------------------------------------------
------------------------------------------------------
-----------7---10---9---------------------------------
-7----5----7---10---9-10--7----5----3----2------------
-7----5----5----8---7-10--7----5----3----2------------
-5----3----------------8--5----3----1----0------------
(solo)
Chorus
--------------------------------------------------------------
--------------------------------------------------------------
--------------------------------------------------------------
-------------------------------------0---0-3-0--0---1----1-0--
-----0---0-3-0---0---0---0-3-0---0----------------3----0-----
-0-3---------------3---------------3--------------------------
--------------------------------------------------------------
--------------------------------------------------------------
--------------------------------------------------------------
-------------------------------------0---0-3-0--0---1--0---2--
-----0---0-3-0---0---0---0-3-0---0----------------3------3----
-0-3---------------3---------------3--------------------------

Outro
--------------------------------------------------------
--------------------------------------------------------
--------------------------------------------------------
---3p2-0h2-------3p2-0h2-5-2--3p2-0h2-------3p2-0h2-5-2-
-0----0----0-0-0----0----3-0-----0----0-0-0----0----3-0-
--------------------------------------------------------


Ваше мнение



Капча

Рекомендуем