This is the acoustic version of Marilyn Manson's Cake and Sodomy called
'White Trash.' Performed by Tony Wiggins...Danzig's bus driver 8)
This is fairly difficult for me to tab on my electric because the sound is
No where close....just kinda nutty to do. so don't be too pissed if it's
Off, it'll give you an idea. i like to play this one around the campfire,
Singing to little boy & girl scouts. if yer lucky, you'll get a
Cookie...and of course, if your reeeeall lucky, you'll eat a brownie :P
WHITE TRASH (arn't we all)
B|------------------------|----------------------|
G|------------------------|----------------------|
D|--------------5---7---5-|------------5-------5-|
A|--------------5---7---5-|------------5-------5-|
E|--0---3---5^^^3-0-5-0-3-|--0-3-5-3-5-3-0-3-5-3-|
B|---------------------|-------------|
G|--------------7----9-|------7----9-|
D|---------7----7----9-|-7----7----9-|
A|---------7----5----7-|-7----5----7-|
E|-3-5-3-5-5-----------|-5-----------|
B|------------------------------|----------------------|
G|------------------------------|--------------77---9--|
D|---5---7---5--------5---7---5-|---------77---77---9--|
A|---5---7---5--------5---7---5-|---------77---55---7--|
E|-0-3-0-5-0-3-0-3535-3-0-5-0-3-|-0-3-5-3-55-----------|
B|--------------|-----------------------|
G|-------77---9-|-----------------------|
D|-77----77---9-|------------5---7---5--|
A|-77----55---7-|------------5---7---5--|
E|-55-----------|--0-0-0-3-5-3-0-5-0-3--|
B|--------------------------|
G|--------------------------|
D|---------5---7---5------7-|
A|---------5---7---5------7-|
E|--0-3535-3-0-5-0-3-0-3535-|


Ваше мнение



Капча

Рекомендуем