From [email protected] Sun May 4 10:49:08 1997
Date: Tue, 01 Apr 97 13:53:58 -0600
From: Henry Nicholson
To: [email protected]
Subject: HelluvaLot-o-Manson
In going over files submitted under Marilyn Manson, I
noticed that you have P.O.A.A.F, but only for
bass.Noticing this, I decided to be generous and send in
all the songs I know, from
POAAF to Antichrist Superstar. Here you go...
This contains parts from:
Cake and Sodomy
Lunchbox
Cyclops
Dope Hat
Get Your Gunn
Wrapped in Plastic
Dogma
Sweet Tooth
Misery Machine
Sweet Dreams
I Put a Spell on You
Rock n Roll Nigger
Irresponsible Hate Anthem
The Beatiful People
Little Horn
Mister Superstar
Angel With Scabbed Wings
Antichrist Superstar
1996
.. and as my gift to you, the bass
from Minute of Decay
POAAF-
CAKE AND SODOMY:
Verse one, Part one-(x2)
-------------------------------------------|
--------------------12----12----12--12--12-|
-------------------------------------------|
-------------------------------------------|
-8-8\------3-------------------------------|
-6-6\------1-------------------------------|
Interlude one-(x2)
---------------------------------------------------|
---------------------------------------------------|
---------------------------------------------------|
---------------------------------------------------|
8-8\------3/----8--(88888)-666-X-------444-X-4\2---|
6-6\------1/----6--(66666)-444-X-6p4-1-222-X-----4-|
Verse one, Part two-
------------------------------------------------
------------------------------------------------
------------------------------------------------
------------------------------------------------
-8-8\------3/----8--(88888)-7^7^\-3----5---12---
-6-6\------1/----6--(66666)-5^5^\-1----3---10---
------------------------------------------------|
------------------------------------------------|
------------------------------------------------|
-------------------------------------------7777-|
-8-8\------3/----8--(88888)-7^7^\-3----55555555-|
-6-6\------1/----6--(66666)-5^5^\-1----3333-----|
Chorus-
-------------------(9)-------------------
--------------------7--------------------
--------------------6--------------------
-------------------(0)-------------------
-8-8\------3----6-6-----4444444446666888-
-6-6\------1----4-4-----2222222224444666-
--------------------12~^-----------------|
--------------------10~^-----------------|
-----------------------------------------|
---------------------------------7777444-|
-8-8\------3----6-6-----4444444445555222-|
-6-6\------1----4-4-----222222222--------|
Verse two, Part two-(x2)
-------------------------10--------------|
--------------------10h12--------10------|
-----------------------------9h11--------|
-----------------------------------XXX-8-|
-8-8\------3-----------------------XXX-8-|
-6-6\------1-----------------------XXX-6-|
Interlude two-(x2)
-----------------------------------------------|
-----------------------------------------------|
-----------------------------------------------|
-----------------------------------------------|
------------------4\2--------------------6p4---|
XXX-X-6p4-1-XXX-X-----4-XXX-X-5p3-0-XXX-X----6-|
Verse two, Part two-(x2)
----------------------------------------------------|
----------------------------------------------------|
----------------------------------------------------|
-----------------10---------------------------------|
-8-8\------3----8-8-8-(888)-666-X-------444-X-4\2---|
-6-6\------1----6---6-(666)-444-X-6p4-1-222-X-----4-|
Solo-(x4)
----------------------------------|
----------------------------------|
----------------------------------|
-44444444777770704444444477777990-|
-44444444777770704444444477777990-|
-22222222555550502222222255555770-|
LUNCHBOX:
Intro-a few times
------------------------------------------------|
-------------------------------------------15~^-|
------------------10-10--------------------14---|
-7/9-9-XXX-12-XXX--9--9-X-7/9-9-XXX-12-XXX------|
-5/7-7-XXX-10-XXX-10-10-X-5/7-7-XXX-10-XXX------|
------------------------X-----------------------|
Verse-(also part for "PowPowPow")
----------------------|
----------------------|
------------------7-5-|
-7/9-9-XXX-12-XXX-5-3-|
-5/7-7-XXX-10-XXX-----|
----------------------|
CYCLOPS: Dropped D
Intro-
------------------------------------------------------|
----8^---8^-8^---6^---6^-6^---7^---7^-7^---5^---5^-5^-|
----7----7--7----5----5--5----6----6--6----4----4--4--|
XXXX0XXXX0XX0XXXX0XXXX0XX0XXXX0XXXX0XX0XXXX0XXXX0XX0--|
XXXX-XXXX-XX-XXXX-XXXX-XX-XXXX-XXXX-XX-XXXX-XXXX-XX---|
XXXX-XXXX-XX-XXXX-XXXX-XX-XXXX-XXXX-XX-XXXX-XXXX-XX---|
Verse-
------------------------------|
------------------------------|
------------------------------|
------------------------------|
000010--5--\-1--000010--78757-|
000010--5--\-1--000010--78757-|
DOPE HAT: Dropped D
Intro one/Chorus-
---------------------------|
---------------------------|
---------------------------|
-2222225555552222228887772-|
-2222225555552222228887772-|
-2222225555552222228887772-|
Intro two/Verse-
-------------------|
-------------------|
-------------------|
-------------------|
-0h2-2-8-8-7-7-5-5-|
-0h2-2-8-8-7-7-5-5-|
Bridge (My big top tricks.....the hat is wearing me)-
---------------------------------|
---------------------------------|
---------------------------------|
---------------------------------|
-5-5-5-5-2-2-2-2-8-8-8-8-7-7-7-7-|
-5-5-5-5-2-2-2-2-8-8-8-8-7-7-7-7-|
GET YOUR GUNN:
Intro-
--------------------------------------|
--------------------------------------|
--------------------------------------|
-------------------------2------------|
-(7\)----7----2---------------2-----5-|
------0----6----6---3-0----6----6-----|
WRAPPED IN PLASTIC:
Intro-
----------------------------------------------------
----------------------------------------------------
----------------------------------------------------
----------------------------------------------------
---------------------7^---------------------------7-
-0h2-2-4^--2p0-2p0-2----9-\-0h2-2-4^--2p0-2p0-2-9---
-----------------------------------------------
-----------------------------------------------
-----------------------------------------------
-----------------------------------------------
---------------------7-9---------------------7-
-0h2-2-4^--2p0-2p0-2------0h2-2-4^--22--87575--
----------------------------------------------------
----------------------------------------------------
----------------------------------------------------
----------------------------------------------------
---------------------7^---------------------------7-
-0h2-2-4^--2p0-2p0-2----9-\-0h2-2-4^--2p0-2p0-2-9---
-----------------------------------------------|
-----------------------------------------------|
-----------------------------------------------|
-----------------------------------------------|
---------------------7\4-4-------------------7-|
-0h2-2-4^--2p0-2p0-2-------0h2-2-4^-22--87575--|
DOGMA: Dropped D
Intro-
---------------------------------
---------------------------------
---------------------------------
---------------------------------
-22222222222222225555555555555555
-22222222222222225555555555555555
---------------------------------|
---------------------------------|
---------------------------------|
---------------------------------|
44444444444444442222222222222222-|
44444444444444442222222222222222-|
The verse is basically the same but it's played on a
bass.
Bridge (Good is the thing that you favor...)-
---------------------------------|
---------------------------------|
---------------------------------|
---------------------------------|
---------------------------------|
-2-5-4-0-2-5-4-0-2-5-4-0-2-5-4-0-|
Chorus (You cannot sedate...)-
------------------------|
------------------------|
------------------------|
-2-2-2-2-2---2-2-2-2-2--|
-2-2-2-2-2---2-2-2-2-2--|
-2-2-2-2-2---2-2-2-2-2--|
SWEET TOOTH:Dropped D
Intro/Chorus-
---------------------------------------------------------
-----|
---------------------------------------------------------
-----|
---------------------------------------------------------
-----|
-----4-----------2------------------4-----------2-------7
77/9-|
-2-2-2---2-5---2-0---5---555h7--2-2-2---2-5---2-0---0---5
55/7-|
-2-2-----2-5---2-----5---555h7--2-2-----2-5---2-----0----
-----|
Preverse/Verse- Palm-muted
---------------------------------------------------------
-----|
---------------------------------------------------------
-----|
---------------------------------------------------------
-----|
---------------------------------------------------------
-----|
---------------------------------------------------------
-----|
222211110000111122221111000011112222111100001111222211110
0001-|
Prechorus-
------------
------------
------------
-2--1--0--1-
-2--1--0--1-
-2--1--0--1-
MISERY MACHINE: Dropped D
Intro-
----------------------------------------|
----------------------------------------|
----------------------------------------|
--------------------------------3----5--|
---5-3-------5-3-------5-3-----3----5---|
000---6\1-000---6\1-000---6\3-3--3/5--5-|
This part comes in after the intro is played about four
times-
--------------------------------
--9-8-6----6-8-9---9-8-6--------
778-7-5-7-75-7-87-78-7-55-5-5-5-
77------7-7-----7-7-----5-5-5-5-
--------------------------------
--------------------------------
------------------------8-8-8-8-8-|
---9-8-6---6-8-9---9-8-68-8-8-8-8-|
7-78-7-57-75-7-87-78-7-5----------|
7-7-----7-7-----7-7---------------|
----------------------------------|
----------------------------------|
"I am fueled by filth and fury..."-
------------------------|
------------------------|
------------------------|
-0--3--5--3--0--3--5--7-|
-0--3--5--3--0--3--5--7-|
-0--3--5--3--0--3--5--7-|
SMELLS LIKE CHILDREN-
SWEET DREAMS:
Intro/Verses one and two-
---------------------------------|
---------------------------------|
---------------------------------|
-----5---6---5-------------------|
-3-3---3---3---3-----6h8-----5h6-|
-----------------4-4-----3-3-----|
Interlude-
---------------------------------------------------
---------------------------------------------------
---------------------------------------------------
-------------------55555555------------------------
-6666666666666\55553333333366666665666666665-------
-4444444444444\3333--------44444443444444443-------
---------------------------------|
---------------------------------|
---------------------------------|
-----5---6---5-------------------|
(3)3---3---3---3-----6-8-----5-6-|
-0---------------4-4-----3-3-----|
Preverse 2- this part comes before the second verse. It
is
palm-muted just enough so each note plays
loudly
but doesn't ring.
-------------------------------|
-------------------------------|
-------------------------------|
-----5---6---5-----------------|
-3-3---3---3-------6-8-----5-6-|
---------------4-4-----3-3-----|
Interlude two/also played during "I'm gonna use you..."
part-
------------------------------------------------------|
---------------------------------------------------7^-|
-5-3--h5--7~-5-5-3--h5--7~-5-5-3--h5--7~-5-5-3--h5----|
------------------------------------------------------|
------------------------------------------------------|
------------------------------------------------------|
This part is played during the third verse
up until he starts singing, "Some of them want to use
you..."
Once it gets there, it goes back to the normal verse.
I've
taken the time to show you each notes placement by
comparing
it to the normal verse-
Normal:---------------------------------
---------------------------------
---------------------------------
-----5---6---5-------------------
-3-3---3---3---3-----6h8-----5h6-
-----------------4-4-----3-3-----
3rd -5---------------1-------0-------
verse:---------------------------------
---------------------------------
---------------------------------
---------------------------------
---------------------------------
I PUT A SPELL ON YOU:
Intro-
-------------|
-------------|
-------------|
-----2---1---|
---2--(1)--1-|
-0----(0)----|
This heavier part cuts in later-
-------------------------------------------------
-------------------------------------------------
-------------------------------------------------
-------------------------------------------------
-5-5-5-2-XXX-2-XXX-2-XXX-5-5-5-2-XXX-2-XXX-2-XXX-
-3-3-3-0-XXX-0-XXX-0-XXX-3-3-3-0-XXX-0-XXX-0-XXX-
-------------------------------------------------|
-------------------------------------------------|
-------------------------------------------------|
-------------------------------------------------|
-5-5-5-7-XXX-7-XXX-7-XXX-5-5-5-6-XXX-7-XXX-7-XXX-|
-3-3-3-5-XXX-5-XXX-5-XXX-3-3-3-5-XXX-5-XXX-5-XXX-|
ROCK N ROLL NIGGER:
Intro-
----------------------------------------------------|
----------------------------------------------------|
----------------------------------------------------|
-----------------------------------7--p0------------|
-XXXXXX12\5-XXXXXX12\5-XXXXXX12\5-X5--p0--h7-X7--p0-|
-XXXXXX10\3-XXXXXX10\3-XXXXXX10\3-X-------h5-X5--p0-|
IRRESPONSIBLE HATE ANTHEM:
Intro-
---------------------------------------------------------
------
---------------------------------------------------------
------
---------------------------------------------------------
------
------------4-4-5-5-5-4-4-4-----------------4-4----------
------
4-4-4-7-7-7-2-2-3-3-3-2-2-2-7-7-4-4-4-7-7-7-2-2-2-2-2-2-2
-2-3-3
2-2-2-5-5-5-----------------5-5-2-2-2-5-5-5-----0-0-0-0-0
-0-1-1
---------------------------------------------------------
------
---------------------------------------------------------
------
---------------------------------------------------------
------
------------4-4-5-5-5-4-4-4-----------------4-4-9-9-9-9-9
-9-9-9
4-4-4-7-7-7-2-2-3-3-3-2-2-2-7-7-4-4-4-7-7-7-2-2-7-7-7-7-7
-7-7-7
2-2-2-5-5-5-----------------5-5-2-2-2-5-5-5--------------
------
Chorus-
-----------------------------------------------------
-----------------------------------------------------
-----------------------------------------------------
----4------4------4------4------4-----4--------------
-4--2-7--4-2-7-4--2-7--4-2-7-4--2-7-4-2-7-2--2--2--3-
-2----5--2---5-2----5--2---5-2----5-2---5-0--0--0--1-
-----------------------------------------------------|
-----------------------------------------------------|
-----------------------------------------------------|
----4------4------4------4------4-----4--------------|
-4--2-7--4-2-7-4--2-7--4-2-7-4--2-7-4-2-7-9--9--9--9-|
-2----5--2---5-2----5--2---5-2----5-2---5-7--7--7--7-|
THE BEAUTIFUL PEOPLE: Dropped D
Intro one-
-------------|
-------------|
-------------|
-XXXXX-XXXXX-|
-XXXXX-XXXXX-|
-XXXXX-XXXXX-|
Intro two-play this four times then start Intro 3
--------------|
--------------|
--------------|
--------------|
--------------|
-0h3-0--------|
Intro three/Chorus-
----------------------------
----------------------------
----------------------------
----------------------------
0-6-0-6-0--0-6-0-6-0--0-3-0-
0-6-0-6-0--0-6-0-6-0--0-3-0-
Verse-
-----------------------------|
-----------------------------|
-----------------------------|
-----------------------------|
(0-6-0-6-0--0-6-0-6-0)XXX3-0-|
(0-6-0-6-0--0-6-0-6-0)XXX3-0-|
LITTLE HORN: Dropped D
Intro/Verse-
--------------------------------|
--------------------------------|
--------------------------------|
--------------------------------|
300300300300305-300300300300653-|
300300300300305-300300300300653-|
MISTER SUPERSTAR:
Intro/Verse-
-----------------|
-----------------|
-----------------|
-777999999999999-|
-555777777777777-|
-000000000000000-|
ANGEL WITH SCABBED WINGS: Dropped D
Intro/Bridge(Dead is what he is...Man can't always reap
what he sow)
---------------------|
---------------------|
---------------------|
---------------------|
-1p0-1-2-3-1p0-1-2-3-|
-1p0-1-2-3-1p0-1-2-3-|
Verse-
------------------|
------------------|
------------------|
------------------|
------------------|
1p0-XXXX-1p0-XXXX-|
ANTICHRIST SUPERSTAR:
Intro 1/"The time has come... our antichrist is almost
here"-
--------------|
--------------|
--------------|
2-2-----------|
0-0--("HEY!")-|
--------------|

Intro 2/Bridge (REPENT...Whose mistake am I anyway?"-
-----------------------------------------------------|
-----------------------------------------------------|
---------7------------7------------7-----------------|
2-2-5-2--5---2-2-5-2--5---2-2-5-2--5---2-2-5-2-8\7-5-|
0-0-3-0------0-0-3-0------0-0-3-0------0-0-3-0-6\5-3-|
-----------------------------------------------------|
Verse-
------------------------------|
------------------------------|
------------------------------|
2-2-5-2-2-2-5-2-2-2-5-2-8\7-5-|
0-0-3-0-0-0-3-0-0-0-3-0-6\5-3-|
------------------------------|
Chorus (You cut the head off...)-
----------------------|
----------------------|
7----6-4--------------|
5----4-2--2-2-5-2--5--|
----------0-0-3-0-----|
----------------------|
1996:
Intro-
-------------------|
-------------------|
-------------------|
-------------------|
-------------------|
-0-0035(3)6-6-6-53-|
MINUTE OF DECAY: Bass
Intro/Verse-
----------------------------------|
----------------------------------|
----------------------------------|
-4-4-4-4-7-7-7-7-6-7-6-0----0-0-2-|
Chorus (The minute that it's born... I'd love to live
this lie)
---------------------------------------------
---------------------------------------------
---------------------------------------------
-4-4-4-4-4-4-4-7-------2-2-2-2-2-2-2-9-------
---------------------------------------------|
---------------------------------------------|
---------------------------------------------|
-4-4-4-4-4-4-4-7-------2-2-2-2-2-2-2-0-------|
From [email protected] Sun May 4 10:49:16 1997
Date: Thu, 03 Apr 97 10:36:18 -0600
From: Henry Nicholson
To: [email protected]
Subject: MOREMOREMORE!!!
A day or two ago I sent in a sheet full of about 20 or more
Marilyn Manson song, but left "Tourniquet" out. Anyway, I
figured out Tourniquet and here it is.
^-bend
Bass intro/verse-
---------------------------------|
---------------------------------|
---------------------------------|
-02-22-20-22-2-20-02-22-20-02-2--|
Guitar-This part is played after the bass riff is played
once or twice. It's also for the second half of the first
verse, and the last couple of lines of the second-
--------------------------------------------|
--------------------------------------------|
---------0---0-----------------0---0--------|
-7^----7---3-----------7^----7---3----------|
-----------------4-(5)-----------------4----|
--------------------------------------------|
Chorus-
---------------------------------------------|
---------------------------------------------|
------------5^--------------------0----------|
-7^----5-5-----3-(333h5)--7^----7-----3------|
---------------------------------------------|
---------------------------------------------|
Later in the song comes a low, scratchy whine from the gutiar.
It goes: (Dropped D)
-------------------------
-------------------------
-------------------------
-------------------------
-0h1p0-0h1p0-0h1p0-0h1p0-
-0h1p0-0h1p0-0h1p0-0h1p0-
-Poodgie
From [email protected] Sun May 4 10:49:35 1997
Date: Tue, 22 Apr 97 19:27:32 -0500
From: Henry Nicholson
To: [email protected]
Subject: corrections
In a previous entry I sent in, I gave quite a few songs'
tablature to each of Marilyn Manson's albums, but I am sorry
to say that when I typed up I Put A Spell On You, from SMELLS
LIKE CHILDREN I screwed up pretty severely. To make up for
this unfortunate mistake I am giving you the COMPLETE tab
for lead guitar, and the bass. Here it is:
SYMBOL KEY:
-V___... is for VIBRATO. This is shown below the bar
that it's played on. Start at the V and stop
at the end of the line.
-BENDS: ' is a quarter step, ^ is a half step, and ~ is a
full step.
-SLIDING / is to slide up (5/7) and \ is to slide
down (7\5).
-SWITCHING FRETS h is to hammer on (5h7) and p is
to pull off (7p5).
It starts off with one minor difference from the
normal bass:
------------|
------------|
------------|
-2330--0--0-|
After that play this once before the guitar comes
in and repeat until the verse starts:
------------|
------------|
------------|
-3330--0--0-|
This is played on the guitar until the verse starts:
-------------|
-------------|
-------------|
-------------|
--7-5---7-5--|
-7---6-7---6-|
The bass for the first verse is:
-------------------------------------------------|
-------------------------------------------------|
-------------------------------------------------|
-------------------------------------------------|
-------------------------------------------------|
-0--0--0--3330--0--0--3335--5--5--8885--5--5--888|
..and starts all over.
This part is the complete verse (GUITAR) and does
not repeat:
-------------------------------------------------
-------------------------------------------------
-------------------------------------------------
--------------------------7-5---7-5---7-5---7-5--
--7-5---7-5---7-5---7-5--7---6-7---6-7---6-7---6-
-7---6-7---6-7---6-7---6-------------------------
-------------------------------------------------
--------------------------------5--5-------------
-------------------------------------------------
--------------------------7--7-7--7--------------
--7-5---7-5---7-5---7-5--7--7---------7-5---7-5--
-7---6-7---6-7---6-7---6-------------7---6-7---6-
-------------|
-------------|
-------------|
-------------|
--7-5---7-5--|
-7---6-7---6-|
After you play the GUITAR part once, and the BASS
part twice, pause until this solo breaks in [Solo 1]
-----------11----------------17--
-10^-----11----------------12----
-----------------9h10^-----------
---------------------------------
---------------------------------
---------------------------------
--------------11-------------------|
--9-10^-----11---------------------|
--------------------9-10^-----7----|
-----------------------------------|
-----------------------------------|
-----------------------------------|
..play the same bass part during this and
throughout the rest of the song.
After Solo 1, play the GUITAR verse (slightly
distorted) part again, and then immediately
break into Solo 2:
------------------------------------------
------------------------------------------
----------------------0-----9-9-9-9-11-12-
--------------7-8p78p7--7-9---------------
-7-7-7-7-9-10-----------------------------
------------------------------------------
------------------------10------10------10---------
10-11p10-10-10-11p10-10---11-10---11-10---11-10-12'
---------------------------------------------------
---------------------------------------------------
---------------------------------------------------
---------------------------------------------------
------11-----11---12-15-12-15~---15p12-10-15p12-10-
---10-----10---10----------------------------------
---------------------------------------------------
---------------------------------------------------
---------------------------------------------------
---------------------------------------------------
V___ V___
15-17^----15-12-10--------10---10--------------------
-------------------12--12---12---12-\5---------------
-----------------------------------------9-9---12-12-
----------------------------------------9----12------
-----------------------------------------------------
-----------------------------------------------------
V_____________________
------------------10'10'--10'10'--10'10'------
-10-10-10(10-10)10------10------10------10-12-
9---------------------------------------------
----------------------------------------------
----------------------------------------------
----------------------------------------------
----10(10)--------------|
--10------10------------|
------------12\9-9--7---|
------------------------|
------------------------|
--------------------0---|
After that is finished play this part once with a lot
of gain to it:
---------------------------------------------
---------------------------------------------
---------------------------------------------
-2--2--2--5552--2--2--5557--7--7--ttt7--7--7-
-2--2--2--5552--2--2--5557--7--7--ttt7--7--7-
-0--0--0--3330--0--0--3335--5--5--8885--5--5-
-----------------------------------------
------------------------------------5--5-
-----------------------------------------
-ttt2--2--2--5552--2--2--5557-7--7-7--7--
-ttt2--2--2--5552--2--2--55577--7--------
-8880--0--0--3330--0--0--3335------------
--------------------------|
--------------------------|
--------------------------|
2--2--2--5552--2--2--5557-|
2--2--2--5552--2--2--5557-|
0--0--0--3330--0--0--3330-|
..between all the spaced notes in there play the note
just before the space FOUR times quickly. Also, any
of the t's in there above the eights are tens.
And thats all. So it goes:
Intro x4
Verse x1
[Solo 1]
Verse x1
[Solo 2]
Outro x1
the second solo seems kinda hard to learn at first,
but after a few times of playing it, it gets much
easier.
-POODGIE!!!


Ваше мнение



Капча