Em C/B Asus2 G Gb
E|--0--|--0--|--0--|--3--|--2--|
B|--0--|--0--|--0--|--3--|--2--|
G|--0--|--0--|--2--|--4--|--3--|
D|--2--|--2--|--2--|--5--|--4--|
A|--2--|--3--|--0--|--5--|--4--|
E|--0--|--0--|--0--|--3--|--2--|
Intro
Em-C/B-Em-C/B-Em-C/B-Em-C/B
Em C/B
They slit our throats
Em Asus2
Like we were flowers
Em G
And our milk has been
G/B Em
Devoured
Asus2 Em
When you want it
Asus2
it goes away to fast
Em
When you hate it
it always seems to last
Asus2 C/B
But just remember when you think you`re free
Asus2 G Gb
The crack inside your fucking heart is me
Em C/B Em C/B
I wanna outrace the speed of pain for another day
I wish I could sleep
But I can`t lay on my back
Because ther`s knife
For everyday that I`ve known you
("Lie to me, die to me...")
B|----12-----12------8---8----5---5----7---7--|
G|---12-12--12-12---8-8-8-8--5-5-5-5--7-7-7-7-|x2
D|-12------12------8---8----5---5----7---7----|
зацените.....


Ваше мнение



Капча