standard tuning
riff 1 (flanger)
e||--------------------------------||
B||--------------------------------||
G||-----------------------------1--||
D||--3--2--0--2-----2--3--2--0-----||
A||--------------------------------||
E||--------------------------------||
riff 2a (i think these riffs are harmonics)
e||-------------------||
B||--9----9--------9--||
G||-------------------||
D||-------------------||
A||-------------------||
E||-------------------||
riff 2b (volume swell)
e||--7-7-7-7-7-7-7-7-7-7-7-7-7-7-7-7--||
B||-----------------------------------||
G||-----------------------------------||
D||-----------------------------------||
A||-----------------------------------||
E||-----------------------------------||
riff 3 (delay and light distortion)
e||---------------------------------------------||
B||---------------------------------------------||
G||--9---------------------------5--------------||
D||--9---------------------------5-----7-----2--||
A||--7---------------------------3-----7-----2--||
E||------------------------------------5-----0--||
riff 4 (just light distortion)
e||-----------------||
B||-----------------||
G||--5-----2--------||
D||--5-----2-----2--||
A||--3-----0-----2--||
E||--------------0--||
riff 5 (heavy distortion)
e||--------------------------||
B||--------------------------||
G||--------------------------||
D||--2---2---8-8-8-8-7-5--4--||
A||--2---2---8-8-8-8-7-5--4--||
E||--0---0---6-6-6-6-5-3--2--||
riff 6 (turn volume really low for this one)
e||-----------------------------------||
B||-----------------------------------||
G||-----------------------------------||
D||-----------------------------------||
A||------7^8---7^8---7^8---7^8--------||
E||--0-0-5^6-0-5^6-0-5^6-0-5^6-0-3-0--||
fill for breakdown of song
e||--------------------------------------||
B||--------------------------------------||
G||--------------------------------------||
D||--2----------2----------2----------2--||
A||--2----------2----------2----------2--||
E||--0----------0----------0----------0--||
riff 7a (first riff in background before live part)
e||-----------------------------------||
B||-----------------------------------||
G||-----------------------------------||
D||-----------------------------------||
A||--7-7-7-7-7-7-7-7-7-7-7-7-7-7-5-5--||
E||-----------------------------------||
riff 7b (second riff in background before live part)
e||---------------------------||
B||------------5^7------------||
G||--x-x-x-x---------x-x-x-x--||
D||--x-x-x-x---------x-x-x-x--||
A||--x-x-x-x---------x-x-x-x--||
E||---------------------------||
riff 8 (I'll show the the chords but not the strumming pattern)
e||--8--|--5--|--0--||
B||--8--|--5--|--0--||
G||--9--|--6--|--1--||
D||--10-|--7--|--2--||
A||--10-|--7--|--2--||
E||--8--|--5--|--0--||
C D E
riff 9 (the s are hrmoniks)
e||----------12----12---------12---12---||
B||-------------------------------------||
G||--9~~/15-----15----15~~\9-----9------||
D||-------------------------------------||
A||-------------------------------------||
E||-------------------------------------||
Thats it.


Ваше мнение



Капча

Рекомендуем