The Reflecting God
Marilyn Manson
[email protected]
12/10/02

I decided to tab out this song because all my axe friends should play this
Manson classic. A lot of this song isn't guitar but I converted it my best.
Drop D

Intro x2
--------------------------
--------------------------
--------------------------
-5-4-3-5^--5-4-3-7^-------
--------------------------
--------------------------

Verse
-------------------------------------------
-------------------------------------------
-15--15-----15-----15--15-----15-----15----
-------------------------------------------
-------------------------------------------
-------------------------------------------
Pinch harmonics on verse

My world is unaffected...
----------------------------------
----------------------------------
----------------------------------
-7----------5---------------------
-7-(x23)----5-(x27)---------------
----------------------------------

I went to God... (x4)Leave out p.m. bit 4th time
--------------------
--------------------
--------------------
-5--3--0-00000------
-5--3--0-00000------
-5--3--0-00000------
.....
p.m.

Chorus
------------------
------------------
------------------
-5--5--444432-----
-5--5--444432-----
-5--5--444432-----

Post-Chorus
--------------------------
--------------------------
--------------------------
---3--2^-(x4)--3--2--1--1-
--------------------------
--------------------------

Interlude
-------------------------------------------
-------------------------------------------
-------------------------------------------
-2-------2-------2-------2-----------------
-2-------2-------2-------2-----------------
-2-------2-------2-------2-----------------

No salvation....
-------------------------------------------------------
-------------------------------------------------------
-------------------------------------------------------
-3------2------3------2------3------2------3------2----
-------------------------------------------------------
-------------------------------------------------------
... ... ... ... ... ... ... ...
p.m. (This bits in there, trust me)

--------------------
----------15^-------
--------------------
-5------------------
-5------------------
-5------------------

Acoustic bit
E Em
I went to God just to see
E Em
And I was looking at me
E Em
Saw Heaven and Hell were lies
E
When I'm gone everyone...

Then into chorus. I'm sure you can figure the strumming and order of
the song. Until next time.
fin


Ваше мнение



Капча

Рекомендуем