Marilyn Manson - The Nobodies (Acoustic)

INTRO & VERSE
||----------------------------------------------------------------
||-------1-1-------1-1--------1-1--------1-1---------1------1-----
||--------2---------2----------2----------2-----------2------2----
||-----------------------------------------------------2-2----2---
||---0----------0----------3----------3---------------------------
||-------------------------------------------------0--------------

---------------------------|| *Repeat* (Not sure how many times,)
------1-1--------1-1-------|| (Listen to song - u'll get it)
-------2----------2--------||
---------------------------||
---0----------3------------||
---------------------------||

CHORUS
||--------------------------------------------------------------
||--------------------------------------------------------------
||--------------------------------------------------------------
||----7-7-7-7-7-7-7-7-10-10-10-10-10-10-10-10-2-2-2-2-2-2-2-2---
||----7-7-7-7-7-7-7-7-10-10-10-10-10-10-10-10-2-2-2-2-2-2-2-2---
||----5-5-5-5-5-5-5-5-8- 8- 8- 8- 8- 8- 8- 8- 0-0-0-0-0-0-0-0---

---------------------------|| *Repeat* (Not sure how many times,)
---------------------------|| (Listen to song - u'll get it)
---------------------------||
----7-7-7-7-5-5-5-5--------||
----7-7-7-7-5-5-5-5--------||
----5-5-5-5-3-3-3-3--------||
OTHER BIT
||-----------------------------------------||
||-----------------------------------------||
||-----------------------------------------||
||----7-7-7-7-7-7-7-7-3-3-3-3-3-3-3-3------||
||----7-7-7-7-7-7-7-7-3-3-3-3-3-3-3-3------||
||----5-5-5-5-5-5-5-5-1-1-1-1-1-1-1-1------|| *Repeat this a few times* (again, listen
to song for amount) then do this....

||-----------|| .....and let it ring, then - ||------------||
||-----------|| ||---------1--||
||-----------|| ||------------||
||---2-------|| ||---1/2-0----||(Slide up)
||---2-------|| ||------------||
||---0-------|| ||------------||

Listen to the song for the order. Its pretty easy as you can see so enjoy!


Ваше мнение



Капча

Рекомендуем