Song:Tha Nobodies
Album:Holywood

Here is the acoustic version of this song:

Standard Tuning (EADGBe)

Intro/Verse:
e|----------------------------------------------------------
B|--1-1--1-1---1-1---1-1---1--------1----------1-1----1-1---
G|---2----2-----2-----2------1--------1---------2------2----
D|-----------------------------2-2------2-------------------
A|-0----0----3-----3-------------------------0--------------
E|-----------------------0---------------------------3------
Tiday,Im dity...........
Chorus:
e|----------------------------------|
B|----------------------------------|
G|------5...------------------------|
D|-7...-5...-2...---7-7-7-7-5-5-5-5-|
A|-7...-3...-2...---7-7-7-7-5-5-5-5-|
E|-5...------0...---5-5-5-5-3-3-3-3-|
We are tha NOBODIEEEEEEEEs......
Bridge:
e|-----------|-------------|
B|-----------|-------------|
G|-----------|-------------|
D|-7...-3...-|-7...-3...-2-|
A|-7...-3...-|-7...-3...-2-|
E|-5...-1...-|-5...-1...-0-|
Some children died the other daaaaay......
Small Pre-Verse:
e|-----------|
B|-----------|
G|-----------|
D|-----------|
A|-57-5-3-0-|
E|-----------|

End:
e|-----|
B|-----|
G|-----|
D|-----|
A|-7-7-|
E|-5-5-|


Ваше мнение



Капча

Рекомендуем