[1st Verse-no guitar]
Ants are in the sugar/Muscles atrophied/We're on the other side (the screen
Is us and we're TV)/Spread me open, sticking to my pointy ribs are all your
Infants in abortion cribs/I was born into this/Everything turns to shit/The
Boy that you loved is the man that you fear.
[1st Chorus-no guitar]
Pray until your number/Asleep from all your pain/Your apple has been
Rotting/Tomorrow's turned up dead
Now we're far in enough to give you the verse riff:
Acoustic, Standard tuning
G B
-----------------------------------------------------------------|
-----------------------------------------------------------------|
---------------------------------4-----------4-------4---4-4-4---|
-5-----------5-------5---5-5-5-5-4-------4-----------4---4-4-4---|
-5-------------------5---5-5-5-5-2-------2-----2-----2---2-2-2---|
-3-------3-----------3---3-3-3-3---------------------------------|
G A
-------------------------------------------------0---------------||
---------------------------------------------0-------0-----------||
-------------------------2---------------2---------------2-------||
-5-------5-----5-----2-------2-------2-----------------------2---||
-5-------5-----5-----------------0-------------------------------||
-3-------3-----3-------------------------------------------------||
The chord symbols given are not the exact symbols for the chords, I'm
Just using those as a symbol to show when each part of the riff
Is started during the verse.
2nd Verse-
G B
I have it all and I have no choice but
G A
To. I'll make everyone pay and you will see
G B
You can kill yourself now because you're dead in my
G A
Mind. The boy that you loved is the monster you fear
Chorus Riff-
E D
----------------------------------------------------------------|
----------------------------------------------------------------|
-9-------9-9---9---9-9-9-9-9-9-9-7-------7-7---7---7-7-7-7-7-7-7|
-9-------9-9---9---9-9-9-9-9-9-9-7-------7-7---7---7-7-7-7-7-7-7|
-7-------7-7---7---7-7-7-7-7-7-7-5-------5-5---5---5-5-5-5-5-5-5|
----------------------------------------------------------------|
B A
----------------------------------------------------------------||
----------------------------------------------------------------||
----------------------------------------------------------------||
-9-------9-9---9---9-9-9-9-9-9-9-7-------7-7---7---7-7-7-7-7-7-7||
-9-------9-9---9---9-9-9-9-9-9-9-7-------7-7---7---7-7-7-7-7-7-7||
-7-------7-7---7---7-7-7-7-7-7-7-5-------5-5---5---5-5-5-5-5-5-5||
Chorus:
E D
Peel off all thos eyes/Crawl into the dark
B A
You poison all your children to camouflage your scars
E D
Pray unto your splinters/Pray unto your fears
B A
Pray your life was just a dream/The cut that never heals
E D B A
Pray now, baby/Pray your life was just dream (Just a dream...)
[3rd Chorus extension]
E D
The world in my hands and there's no one left to
B A
Hear you scream/No one left for you


Ваше мнение



Капча