Tabbed by : [email protected]
Artist : Marilyn Manson
Album : Holy Wood (In The Shadow Of The Valley Of Death)
Song : Track #17 - The Fall of Adam

Tuning: Standard (EADGBE)

Key

. = palm mute any notes with a . underneath

Intro : (you work out the strumming pattern, these are just
the chord formations)

Fmin Fm/D# Fm/D C#maj7 (Fm/C#)
E|-1------1------1------1------|
B|-1------1------1------1------|
G|-1------1------1------1------|
D|-3------1------0------3------|
A|----------------------4------|
E|-----------------------------|

Synth transcribed for guitar #1 (distorted) :

G|---------------------------|
D|---10---11---10------8-----|
A|-8----8----------8-9---9-8-|
E|---------------------------|

Distorted guitar #2 : (rhythm)

G|---------------------------------|
D|-3-3-3-3-3-3-3-3-4-4-4-3-3-3-3-3-|
A|-3-3-3-3-3-3-3-3-4-4-4-3-3-3-3-3-|
E|-1-1-1-1-1-1-1-1-2-2-2-1-1-1-1-1-|
pm . . . . . . . . . . . . . . . .


Ваше мнение



Капча

Рекомендуем