Marilyn Manson, Sweet Tooth.
Tabbed by Picky, [email protected]

Hi Kids! I am the real savior so kiss my cheex!
Main Riffy thing:
e----------------------------------------------
b----------------------------------------------
g----------------------------------------------
d----------------------------------------------
a--0-7-0-3-0-5-3-3-3-3-3-3-3---0-7-0-3-0-5-----
E------------------------------------------3---

after intro and probably in other places:

e-----------------------------------
b-----------------------------------
g-----------------------------------
d-----------------------------------
a--3-3-3-3-2-2-2-2-3-3-3-3-4-4-4-4--
E-----------------------------------

Chorus:
e-----------------------------------------
b-----------------------------------------
g-----------------------------------------
d-----------------------------------------
a-----------------------------------------
E--0-7-0-3-0-5-3--3-3-3-3-0-7-0-3-0-5-3---

Have fun and remember, not all eight armed monkeys can talk!!!!!!!!!!!!!!


Ваше мнение



Капча

Рекомендуем