Sweet Dreams (are made of this)
Marilyn Manson
Smells Like Children
E A D G B E
This is the correct version of the solo. Watch the Guns, God and Government DVD
and you will see how John 5 plays the solo. It's done near the body and not at
the head of the guitar.
I'm pretty sure the effects are Wah-wah, Delay and Reverb.
Also, this isn't timed, you can do that yourself (I hope)
|-13--14--17-----------------------------------------|
|------------17--15----------------------------------|
|-------------------13-------------------------------|
|----------------------15--13--15--------------------|
|---------------------------------13--13br13br13br---|
|----------------------------------------------------|
|--------------------------------------------------13-14-17----|
|--------------------------------------------13-14----------15-|
|-------------------------------------15b-15-------------------|
|--------------------------13--15--13--------------------------|
|-11---11--12--14--15b--15-------------------------------------|
|--------------------------------------------------------------|
That's it. Alot of the song is bends and effects.
Rich [email protected]
fin


Ваше мнение



Капча

Рекомендуем