Riff 1: Main Riff
E|--------------------------------------|
B|--------------------------------------|
G|--------------------------------------|
D|-----5---6---5------------------------|
A|-3-3---3---3---3-------6/8-----5/6----|
E|------------------4-4------3-3--------|
Riff 2:
E|------------------------------------------------------------------------|
B|------------------------------------------------------------------------|
G|--------------------------------5-5-5-5-5-5-5-5-5------------------------|
D|--6-6-6-6-6-6-6-6-6-6-6-6-6--5--5-5-5-5-5-5-5-5-5--6-6-6-6-6-6-6--5------|
A|--6-6-4-6-6-6-6-6-6-6-6-6-6--5--3-3-3-3-3-3-3-3-3--6-6-6-6-6-6-6--5------|
E|--4-4-4-4-4-4-4-4-4-4-4-4-4--3---------------------4-4-4-4-4-4-4--3------|
E|-----------------------------------|
B|-----------------------------------|
G|-----------------------------------|
D|-6-6-6-6-6-6-6-6--5-5-5-5-5-5-5-5--|
A|-6-6-6-6-6-6-6-6--5-5-5-5-5-5-5-5--|
E|-4-4-4-4-4-4-4-4--3-3-3-3-3-3-3-3--|
Riff 3:
E|-----------------------------------------------|
B|-----------3--3^----------------------7^-------|
G|--5--3--5----------(PLAY 3x)--5--3--5----------|
D|-----------------------------------------------|
A|-----------------------------------------------|
E|-----------------------------------------------|
E|-------------------------------------------------|
B|-------------------------------------------------|
G|-----------3--3^-----------------------3--3^-----|
D|--5--3--5----------(PLAY 2x)--5--3--5---------5--|
A|-------------------------------------------------|
E|-------------------------------------------------|
Solo:
E|--6--8----11------6--8--6--------------------|
B|----------------------------7^---------------|
G|--------------------------------5--3--5------|
D|-----------------------------------------3^--|
A|---------------------------------------------|
E|---------------------------------------------|
E|------------------------------------------------|
B|----------------------------------------3----4--|
G|----------5--------------------5-----5----------|
D|---3^--5--------------3---3^--------------------|
A|---------------3--5-----------------------------|
E|------------------------------------------------|
E|-----------------6---8---6---11---13---14^-------|
B|---3---6-----6^------------------------------13--|
G|-------------------------------------------------|
D|-------------------------------------------------|
A|-------------------------------------------------|
E|-------------------------------------------------|


Ваше мнение



Капча

Рекомендуем