Snake Eyes and Sissies tabbed by:daisy_b_ ([email protected])
(guitar)

reach me on the undernet in #marilyn-manson
Pre chorus
[-----------------------------------------------------------]
[-----------------------------------------------------------]
[-----------------------------------------------------------]
[-5-5-5-5-5-5-5-5--8-8-8-8-8-8-8-8--12-12-12-12-12-12-12-12-]
[-5-5-5-5-5-5-5-5--8-8-8-8-8-8-8-8--12-12-12-12-12-12-12-12-]
[-3-3-3-3-3-3-3-3--6-6-6-6-6-6-6-6--10-10-10-10-10-10-10-10-]
chorus
[-----------------------------------------------]
[-----------------------------------------------]
[-----------------------------------------------]
[-2-5-2-7-8-2~-2-5-2-78-2~-2-5-2-78-2/888-12-12-]
[-2-5-2-7-8-2--2-5-2-78-2--2-5-2-78-2/888-12-12-]
[-0-3-0-5-6-0--0-3-0-56-0--0-3-0-56-0/666-10-10-]


Ваше мнение



Капча

Рекомендуем