Shitty Chicken Gang Bang
By Marilyn Manson
Submitted by Mike Gagnon
From the Smells Like Children EP
Standard Tuning (EADGBe)

Guitar one
e-------------------------------------------0-----0--------
B---0-----------------------------------------3-----3------
G-----3----2-1---0-----------------------------------------
D-0-----2------3-----4-1-----------------------------------
A----------------------------------------------------------
E----------------------------------------------------------

Second Guitar
e------------0--0-1-3-2----3--0-0-
B--------3--------------4---------
G---------------------------------
D---------------------------------
A---------------------------------
E---------------------------------

e---------------3-2----5-4---3-----
B-------------1-----5------6---7-4-
G---------------4-3----2-1---0-----
D-------------0------2-----3---4-1-
A----------------------------------
E----------------------------------

I Hope this is all right, if not than someone else give it a shot.


Ваше мнение



Капча

Рекомендуем