tuning : STANDARD (EADGBE)
Main Riff
~~~~~~~~~
----------------------|
----------------------|
----------------------|
|-4-4-----4-4-----4-4-----4-4-7---|
|-4-4-----4-4-----4-4-----4-4-7---|
|-2-2-----2-2-----2-2-----2-2-5---|
Pre-chorus
~~~~~~~~~~
----------------------|
----------------------|
----------------------|
|-7----10----12----7----10----12--|
|-7----10----12----7----10----12--|
|-5----8-----10----5----8-----10--|
Chorus
~~~~~~
----------------------------------------|
----------------------------------------|
|---11--9-11-9---11--9-11-9---9--7-9-7---9--7-9-7---|
|---11--9-11-9---11--9-11-9---9--7-9-7---9--7-9-7---|
|---9---7-9--7---9---7-9--7---7--5-7-5---7--5-7-5---|
----------------------------------------|
----------------------------------------|
----------------------------------------|
|---7--6-7-6---7--6-7-6----6-6-6-6-6-6-9-9-9-9-9-9--|
|---7--6-7-6---7--6-7-6----6-6-6-6-6-6-9-9-9-9-9-9--|
|---5--4-5-4---5--4-5-4----4-4-4-4-4-4-7-7-7-7-7-7--|
----------------------------------------|
Listen to the CD for the timing but the tune is right


Ваше мнение



Капча

Рекомендуем