Rock 'N' Roll Nigger - Marilyn Manson
Jon Craven ([email protected]; www.homestead.com/larsramirez)
(enters @ 0:23)
Riff 1: (x2)
G:-------------------|-------------------|-------------------|------------|
D:-------------------|-------------------|-------------------|------------|
A:-------------------|-------------------|-------------------|----5-------|
E:-0-0-0-0-0-0-12-12-|-0-0-0-0-0-0-12-12-|-0-0-0-0-0-0-12-12-|-0-----0--5-|
Riff 2: (x11)
G:-----------------|-----------------|-----------------|------------|
D:-0-2-2-2-2-2-2-2-|-0-2-2-2-2-2-2-2-|-0-2-2-2-2-2-2-2-|------------|
A:-----------------|-----------------|-----------------|----5-------|
E:-----------------|-----------------|-----------------|-0-----0--5-|
Pause for 24 measures
Riff 3: (x4)
G:----------|-----------|
D:-2*******-|-0***------|
A:----------|------0***-|
E:----------|-----------|
Riff 1 (x2)
Riff 2 (x8)
End:
G:----------|----------|----------|----------|----------|----------|----------|----------|----------|
D:----------|----------|----------|----------|----------|----------|----------|----------|----------|
A:----------|----------|----------|----------|----------|----------|----------|----------|----------|
E:-0*******-|-********-|-********-|-********-|-********-|-********-|-********-|-********-|-********-|
G:----------|----------|----------|----------|----------|----------|
D:----------|----------|----------|----------|----------|----------|
A:----------|----------|----------|----------|----------|----------|
E:-********-|-********-|-********-|-********-|-********-|-********-|
Break till end
===========
ROCK'N'ROLL NIGGER
intro
2x

G-------||--------------------------------||------------------||--------
D---4:--||*------------------------------*||-----------------*||--------
A---4:--||*------------------------------*||--------5--------*||--------
E-------||---0--0--0--0--0-----12--12----||-----0-----0--5---||--------
verse/chorus

G---||-----------------------------|----------------------------|------
D---||*----------------------------|----------------------------|------
A---||*--0h2-----2--2--2--2--2--2--|--0h2-----2--2--2--2--2--2--|------
E---||-----------------------------|----------------------------|------
-
bridge

G-----------------------------|---------------||--|-------||--|--------
D-----------------------------|--------------*||--|-------||--|--------
A---0h2-----2--2--2--2--2--2--|-----5--------*||--|-------||--|--------
E-----------------------------|--0-----0--5---||--|--7---||--|--------
-
i was lost.....

G---------------|--------------|--------------|--------------||--------
D---------------|--------------|--------------|--------------||--------
A---7-----5-----|--7-----5-----|--7-----5-----|--7-----5-----||--------
E------------5--|-----------5--|-----------5--|-----------5--||--------
-
end

G---|--------||--------------------------------------------------------
D---|--------||--------------------------------------------------------
A---|--------||--------------------------------------------------------
E---|--0-----||--------------------------------------------------------
-


Ваше мнение



Капча