Artist:Marilyn Manson
Song:Redeemer
Album:Queen of the Damned Soundtrack
Tabbed:[email protected]

Intro

G-----------------------------------------------
D-----------------------------------------------
A-----------------------------------------------
E-5-5-5-5-5-4-4-4-4-4-4-5-5-5-5-5-5-4-4-4-4-4-4-

THEN
G-----------------------------------------------
D-----------------------------------------------
A--7-7-6-6-6-5-5-4-4-1--------------------------
E-5---5---5-3---3---3---------------------------

Verse

G-----------------------------------------------
D-----------------------------------------------
A-----------------------------------------------
E-7>-6>-3>-1>---7>-6>-9>---9>-------------------

Chorus

G-----------------------------------------------
D-----------------------------------------------
A-----------------------------------------------
E-1-1-1-3-3-4-4-6-6-6---------13-11-------------


Ваше мнение



Капча

Рекомендуем