Negative 3
From the Family Jams Demo
(tune the E string down a half step to D)
Great song, a must for fans

Intro (guitar one)(verse)

e----------------------------------------------
B----------------------------------------------
G----------------------------------------------
D---1--1--1----1--1--1----1--1--1----0--0--0---
A------------2--2--2--2--1--1--1-1-2--2--2--2--
E-0--0--0--0-----------------------------------

e----------------------------------------------
B----------------------------------------------
G----------------------------------------------
D---1--1--1----1--1--1----1--1--1----4--4--4---
A------------2--2--2--2--1--1--1-1-4--4--4--4--
E-0--0--0--0-----------------------------------

During First guitar
Second Guitar (verse)
e-------------------------------------------
B-------------------------------------------
G-8----------4----------3----------6--------
D-8----------4----------3----------6--------
A-6----------2----------1----------4--------
E-------------------------------------------

Riff
Played at the end of each verse

e--------------------------------------
B--------------------------------------
G---------------------------8
D---------------------------8----------
A-6--9--2--4---8--9--8--4---6----------
E--------------------------------------

Chorus

e--------------------------------------------------
B--------------------------------------------------
G-8--8-8-8-8-8--4--4-4-4-4-4--3-3-3-3-3--6-6-6-6-6-
D-8--8-8-8-8-8--4--4-4-4-4-4--3-3-3-3-3--6-6-6-6-6-
A-6--6-6-6-6-6--2--2-2-2-2-2--1-1-1-1-1--4-4-4-4-4-
E--------------------------------------------------

I know that there is a part missing in there somewhere but I will get it eventually.


Ваше мнение



Капча

Рекомендуем