My Monkey - Marilyn Manson
Jon Craven ([email protected]; www.geocities.com/larsramirez2001)
(enters @ 0:18)
Riff 1: (x2)
G:--------------|---------------|--------------|---------------|--------------|---------------|
D:-7--7-7--5--5-|---------------|-7--7-7--5--5-|-------------7-|-7--7-7--5--5-|------------5--|
A:--------------|-7--5--0-3-5-7-|--------------|-7--5--0-5-7---|--------------|-7--5-0-5-7---7|
E:--------------|---------------|--------------|---------------|--------------|---------------|
G:--------------|-------------5-7-|
D:-7--7-7--5--5-|---------5-7-----|
A:--------------|-7--5--0---------|
E:--------------|-----------------|
Riff 2: (x8)
G:-------------|---------------|
D:-------------|---------------|
A:-------------|-------------3-|
E:-5--5--0-3-5-|-5--5--0-3-5---|
Riff 3: (x2)
G:-----------------|-----------------|-----------------|---------2--4-|
D:-2-4-4-2-4-4-4-4-|-2-4-4-2-4-4-4-4-|-2-4-4-2-4-4-4-4-|-2-4-4-4------|
A:-----------------|-----------------|-----------------|--------------|
E:-----------------|-----------------|-----------------|--------------|
Riff 1
Riff 2 (x13)
Pause for 8 measures
Riff 3 (x2)
Riff 4:
G:-2-----0***-|-********-|-******----|-2-----0***-|-********-|-******----|-2-----0***-|-********-|
D:----2-------|----------|-----------|----2-------|----------|-----------|----2-------|----------|
A:------------|----------|-----------|------------|----------|-----------|------------|----------|
E:------------|----------|--------0*-|------------|----------|--------0*-|------------|----------|
(?)---------------------------------->
G:-******----|-2-----0***-|-----------------|------------------|
D:-----------|----2-------|-5h7-5h7-5h7-5h7-|-5h7-5h7-5h7-/15-|
A:-----------|------------|-----------------|------------------|
E:--------0*-|------------|-----------------|------------------|
Riff 5:
G:-2*******-|-******-1-0-|-********-|-******-1-2-|-********-|-******-1-0-|-********-|-****-1--2-|
D:----------|------------|----------|------------|----------|------------|----------|-----------|
A:----------|------------|----------|------------|----------|------------|----------|-----------|
E:----------|------------|----------|------------|----------|------------|----------|-----------|
Riff 1 (x4)
End: (not entirely positive)
G:----------|-----------------|-7--5---------|---------7--5-|-----------------|-7--5---------|
D:-7*******-|-5-7-5-7--7--7-7-|------5-7-5-7-|-7--7-7-------|-5-7-5-7--7--7-7-|------5-7-5-7-|
A:----------|-----------------|--------------|--------------|-----------------|--------------|
E:----------|-----------------|--------------|--------------|-----------------|--------------|
G:---------7--5-|-----------------|-7--5---------|----------|
D:-7--7-7-------|-5-7-5-7--7--7-7-|------5-7-5-7-|-7*******-|
A:--------------|-----------------|--------------|----------|
E:--------------|-----------------|--------------|----------|
Break till end
===========
Marilyn Manson
My Monkey
Verse
E—5-0-3-0-5-5-0-33-0-
A--------------------
D--------------------
G--------------------
Chorus
E-5-0-3-0-|-5^-
A---------|----
D---------|----
G---------|----
Any comments to: [email protected]


Ваше мнение



Капча

Рекомендуем