Marilyn Manson
Mister Superstar
Tabbed by D. Geise
First Verse
E|---5-6------5-6-------5-6--------9--8-----5-6-------9-8-----5-6-------9-8----5-6-------
A|---------5-6------5-6--------5-6------------------5-6-----------------5-6--------------
D|---------------------------------------------------------------------------------------
G|---------------------------------------------------------------------------------------
First Verse Cont.
E|9-8---5--------------|
A|-5-6-------------5-6-|
D|---------------------|
G|---------------------|
First Chorus
E|---4-4-4-4-4-4-4-4-4-4-4-4-4-4--6-6-6-6-6-6-6-6-6-6-6-6-6-6-6-6--7-7-7-7-7-7-7-7-7-7-7-7-
A|-----------------------------------------------------------------------------------------
D|-----------------------------------------------------------------------------------------
G|-----------------------------------------------------------------------------------------
First Chorus (continued)
E|---------------------------------6-6-6-6-6-6-6-6-6-6-6-6-6-6-|
A|-------------------------------------------------------------|
D|-------------------------------------------------------------|
G|-------------------------------------------------------------|
Second Verse
E|---9-8----5-6------9-8---5-6---------5-6--------5-6--------5-6-----------5-6----------5-6-
A|-----------------5-6---------------5-6--------5-6--------5-6---------5-6-----------5-6----
D|------------------------------------------------------------------------------------------
G|------------------------------------------------------------------------------------------
Second Verse Cont.
E|---------5-6-----------------|
A|--------5-6--------5-6-------|
D|-----------------------------|
G|-----------------------------|
Second Chorus
Play first chorus 3 times
Third verse
E|---5-6-----------------------5-6---------------------5-6---------------------5-6------|
A|--------5-6-----------------------5-6----------------------5-6--------------------5-6-|
D|--------------------------------------------------------------------------------------|
G|--------------------------------------------------------------------------------------|
Ending (right after third verse)
E|---5-6----------9-8-|
A|--------5-6---------|
Play it until the song breaks up, which is about 10times
D|----------------------|
G|----------------------|


Ваше мнение



Капча

Рекомендуем