Yea, this is how he plays it in the video so im guessing its right.

* = harmonic

Intro, (0:01-0:26)
e]-------------------------------------------
B]-------------------------------------------
G]--------------7/9-9------------------------
D]--X-X-X-X-X-X-7/9-9-X-X-X-5-X-X-X--14-14---
A]--X-X-X-X-X-X-5/7-7-X-X-X-5-X-X-X--13-13---
E]--X-X-X-X-X-X-------X-X-X-3-X-X-X----------

e]--------------------------------- Play the intro. four
B]--------------------------------- times, but only play
G]--7/9-9--12*--------------14^(14) the 6 scratches at
D]--7/9-9--12*--X-X-5-X-X-X-13^(13) the start the first
A]--5/7-7-------X-X-5-X-X-X-------- time.
E]--------------X-X-3-X-X-X--------

this tabs is by mike ;)


Ваше мнение



Капча

Рекомендуем