(Keyboard Intro for Guitar)
E---|--------------------------------------------------||---------------
B---|--------5--3--------5--3--------5--3--5--3--5--3--||---------------
G---|--2--3--------2--3--------2--3--------------------||---------------
D---|--------------------------------------------------||---------------
A---|--------------------------------------------------||---------------
E---|--------------------------------------------------||---------------
Intro (guit. w/ distortion) (2x)
E-----------------------------------------------------------------------
B-----------------------------------------------------------------------
G-----------------------------------------------------------------------
D-----------------------------------------------------------------------
A---2--2--2--2--5-----2--2--2--2--8--7-----2--2--2--2--5-----7--5-------
E---0--0--0--0--3-----0--0--0--0--6--5-----0--0--0--0--3-----5--3-------

E-----------------------------------------------------------------------
B-----------------------------------------------------------------------
G-----------------------------------------------------------------------
D-----------------------------------------------------------------------
A---3/5-------2--2--2--2--5-----2--2--2--2--8--7-----2--2--2--2--5------
E-------------0--0--0--0--3-----0--0--0--0--6--5-----0--0--0--0--3------

E-----------------||----------------------------------------------------
B-----------------||----------------------------------------------------
G-----------------||----------------------------------------------------
D-----------------||----------------------------------------------------
A------7--5--7\5--||----------------------------------------------------
E------5--3-------||--0-------------------------------------------------
"You're sick... and you're staying sick"
0:44 (bass line)
E---------|-------------------------------------------------------------
B---------|-------------------------------------------------------------
G---------|-------------------------------------------------------------
D---------|-------------------------------------------------------------
A---------|-----------------------------3--5----------------------------
E---------|--0--3--0--6--5-----0--3--0-----------0--3--0--6--5-----0----
"I'll spread me open... "
0:44 (clean guitar) (2x)
E---------------|-------------------------------------------------------
B---------------|-------------------------------------------------------
G---------------|-------------------------------------------------------
D---------------|---------------------------------------------5--7------
A---------7--5--|---------------------------------------------3--5------
E---3--0--------|-------------------------------------------------------
"I'll spread me open... stuck to my ribs...
E------------------------------------------------------------|----------
B------------------------------------------------------------|----------
G------------------------------------------------------------|----------
D-----------------------------------------------9--7---------|----------
A-----------------------------------------------7--5---------|----------
E------------------------------------------------------------|----------
...are all your infants in abortion cribs...
(guit. w/ distortion) (repeat intro 2x)
E----------------------|------------------------------------------------
B----------------------|------------------------------------------------
G----------------------|------------------------------------------------
D----------------------|------------------------------------------------
A----------/7\---------|------------------------------------------------
E---0------------------|------------------------------------------------
"To an obscene god we will dance..."
1:54 (bass line) 2:20 (guit. w/ dist.)
E---|--------------------------|-----------------------|----------------
B---|--------------------------|-----------------------|----------------
G---|--------------------------|-----------------------|----------------
D---|--------------------------|-----7-----------------|----------------
A---|--7--------5--------------|-----7-----------------|----------------
E---|-----7--6-----------------|-----5-----------------|----------------
(repeat several times)
riff 1 (2x)
E-----------------------------------------------------------------------
B-----------------------------------------------------------------------
G-----------------------------------------------------------------------
D-----------------------------------------------------------------------
A------7--5--------------7--5--------5-----7--5--------------7--5-------
E------------6--5--3-----------6--5--------------6--5--3-----------6----
"Sketch a little heyhole... "
riff 2 (4x)
E------------|----------------------------------------------------------
B------------|----------------------------------------------------------
G------------|----------------------------------------------------------
D------------|--5-----5-----5--5-----5-----5-----5--5-----5-----8--7----
A------------|--5-----5-----5--5-----5-----5-----5--5-----5-----8--7----
E---5--6--5--|--3-----3-----3--3-----3-----3-----3--3-----3-----6--5----
"cut, cut, cut in pantomime..."
E---------------------------------------------------------------|-------
B---------------------------------------------------------------|-------
G---------------------------------------------------------------|-------
D------2--------2-----2--2-----2-----2-----2--2-----2-----8--7--|-------
A------2--------2-----2--2-----2-----2-----2--2-----2-----8--7--|-------
E------0--------0-----0--0-----0-----0-----0--0-----0-----6--5--|-------
repeat riff 1 (4x) (8x) repeat intro (2x)
E------------------------|--------|-------------------------------------
B------------------------|--------|-------------------------------------
G------------------------|--------|-------------------------------------
D------------------------|--------|-------------------------------------
A------------------------|--8--7--|-------------------------------------
E------------------------|--6--5--|-------------------------------------
4:27
E---------------------------------------------|-------------------------
B---------------------------------------------|-------------------------
G---------------------------------------------|-------------------------
D---------------------------------------------|-------------------------
A---------------------------------------------|--7--7--7--7--7--7--7----
E---------------------------------------------|-----0--0--0--0--0--0----
"Leave yourself to be ultra-here..."
repeat riff 2 (2x)
E---------------------------|-----------------------|-------------------
B---------------------------|-----------------------|-------------------
G---------------------------|-----------------------|-------------------
D---------------------------|-----------------------|--8--7-----8--7----
A---7--7--7--7--7--7--7--7--|-----------------------|--8--7-----8--7----
E---0--0--0--0--0--0--0--0--|-----------------------|--6--5-----6--5----

E------------------------------||---------------------------------------
B------------------------------||---------------------------------------
G------------------------------||---------------------------------------
D------8--7-----8--7-----8--7--||---------------------------------------
A------8--7-----8--7-----8--7--||---------------------------------------
E------6--5-----6--5-----6--5--||---------------------------------------


Ваше мнение



Капча