Last Day on Earth (Acoustic)
Marilyn Manson
Tabbed by- erRATik04 [email protected]
Note- This is the acoustic version from the Last Tour on Earth CD, not the one on
Mechanical Animals
Intro/Chorus (no singing in intro)
Guitar 1
e|-----------9-----|
B|--5--7--------7--| Repeat Until the verse starts
G|--------0--------|
D|-----------------|
A|-----------------|
E|-----------------|
Guitar 2
B G Em D5 C5 B5
e|-----3--0--| Repeat Chords 3 e|--------------|
B|--4--0--0--| times then play B|--------------|
G|--4--0--0--| G|---7---5---4--|
D|--4--0--2--| D|---7---5---4--|
A|--2--2--2--| During Chorus you can A|---5---3---2--|
E|-----3--0--| Play all 5th chords if E|--------------|
you wnat to (B5,G5,E5)
Verses
Both Guitars
Am G Am G Am G D
e|--0-----3-----0-----3-----0-----3-----2--|
B|--1-----0-----1-----0-----1-----0-----3--|
G|--2-----0-----2-----0-----2-----0-----2--|
D|--2-----0-----2-----0-----2-----0-----0--|
A|--0-----2-----0-----2-----0-----2--------|
E|--------3-----------3-----------3--------|
Chorus

Intro with singing
Solo
Guitar 1
e|-----7-----10--8--7--8-----7-----5-----|
B|--5-----8---------------5-----8-----5--|
G|---------------------------------------|
D|---------------------------------------|
A|---------------------------------------|
E|---------------------------------------|
Guitar 2
Am G Am G Am G D
e|--0-----3-----0-----3-----0-----3-----2--|
B|--1-----0-----1-----0-----1-----0-----3--|
G|--2-----0-----2-----0-----2-----0-----2--|
D|--2-----0-----2-----0-----2-----0-----0--|
A|--0-----2-----0-----2-----0-----2--------|
E|--------3-----------3-----------3--------|
Verse 2
Chorus
Bridge
Play Solo 2 times
Chorus
At end play last line 3 times fading


Ваше мнение



Капча

Рекомендуем