Artist: Marilyn Manson
Song: Irresponsible Hate Anthem
Album: Antichrist Superstar
Tabbed by Flo

Intro/Verse

G-----------------------------------------------------
D-----------------------------------------------------
A:-----0-0-0-2-2-3-3-3-2-2-2-0-0-------0-0-0-2--------
E:2-2-2--------------------------2-2-2---------0-0-0-0

Bridge:

G-----------------------------------------------------
D-----------------------------------------------------
A:--3-2-0-2-0---3-2-0-2-0---3-2-0-2-0-----------------
E:2-----------2-----------2-----------0-0-0-0---------


Ваше мнение



Капча

Рекомендуем