t. See http://www.olga.net/faq/ for more information. #
From: "david molina"
Subject: m/manson_marilyn/great_big_white_world.tab
Date: Sun, 12 Dec 1999 05:01:58 GMT
Great big white world by Marilyn Manson
Mechanical animals
Tabbed by David Molina Bravo
I got this out of my acoustic guitar, so it might not be very accurate
(sounds very close though)
Any comments or corrections please mail them
back to: [email protected]
h - hammer on
p - pull off
Standard Tunning
(Riff 1)
e-----------------------------------
B--1---4---3h4---0--1---4---3---1---
G-----------------------------------
D-----------------------------------
A-----------------------------------
E-----------------------------------
(Riff 2) Iґm not sure about this one
e--9---6---11---8---7---4---7---4---
B-----------------------------------
G-----------------------------------
D-----------------------------------
A-----------------------------------
E-----------------------------------
(Riff 3)
e-----------------------------------
B--1---4---3---1---4---3---1---4----
G-----------------------------------
D-----------------------------------
A-----------------------------------
E-----------------------------------
Riff 1
(first five lines)
Riff 2
Riff 3
(two lines)
Pre-Chorus:
A#5 Ab
Cause itґs a .....
A#5 Ab
A#5 Ab
A#5 Ab
Chorus:
F5 Ab
C5
A#5 Ab
G5
F5
Riff 1
Back to pre chorus
Chorus (with a little varition: from A#5 goes back to F5, then just goes as
the first time)
Riff 3
Chords:
F5 Ab C5 A#5 G5
e-----------------------
B-----------------------
G-----------------------
D--3---6---10---8---5---
A--3---6---10---8---5---
E--1---4---8----6---3---


Ваше мнение



Капча

Рекомендуем