Marilyn Manson - Great big white world.
Tabbed by: Szymon Andersen.

> = Slide up to #.
h = Hold for a while.
b = Bend.
Intro & riff 1:
e|----------------------------------------------|
h|----4--3>4--3>4------------4---3--------------|
g|-5----------------3----5-----------5h------3--|
D|----------------------------------------------|
A|----------------------------------------------|
E|----------------------------------------------|

I'm not attached to your world, nothing heals..:
e|----------------------------------------------|
h|----------------------------------------------|
g|---5--8--7--5--8--7--5--8---------------------|
D|----------------------------------------------|
A|----------------------------------------------|
E|----------------------------------------------|
e|----------------------------------------------|
h|----------------------------------------------|
g|---4--8--7--4--8--7--4--8---------------------|
D|----------------------------------------------|
A|----------------------------------------------|
E|----------------------------------------------|
e|----------------------------------------------|
h|----------------------------------------------|
g|---5--8--7--5--8--7--5--8---------------------|
D|----------------------------------------------|
A|----------------------------------------------|
E|----------------------------------------------|
e|----------------------------------------------|
h|----------------------------------------------|
g|------8--7-----8--7------8--------------------|
D|---8--------8--------8------------------------|
A|----------------------------------------------|
E|----------------------------------------------|
Chorus:
e|----------------------------------------------|
h|------------6--6b-----------------------------|
g|---5--5--8---------8--5-----------------------|
D|-------------------------8--------------------|
A|----------------------------------------------|
E|----------------------------------------------|
e|---------------------------8------------------|
h|------------6--6b------6----------------------|
g|---5--5--8---------8--------------------------|
D|----------------------------------------------|
A|----------------------------------------------|
E|----------------------------------------------|
Chorus2:
e|----------------------------------------------|
h|----------------------------------------------|
g|----------------------------------------------|
D|---3----6----10---8----6----5-----------------|
A|---3----6----10---8----6----5-----------------|
E|---1----4----8----6----4----3-----------------|

During chorus2 there is another guitar(or keyboard)that's playing too,
and it goes something like this:

play about 8 times each.
e|----------------------------------------------|
h|----------------------------------------------|
g|---5--8--12--15--17---------------------------|
D|----------------------------------------------|
A|----------------------------------------------|
E|----------------------------------------------|

The song ends with a lot of bending, mostly on the 12:th fret.
e|--------------|
h|--------------|
g|--12b--12--10-|
D|--------------|
A|--------------|
E|--------------|
That's it!
If you find an error in the tab, please feel free to mail any corrections to me!
[email protected]


Ваше мнение



Капча

Рекомендуем