hey man
nobodys got this tab done
so i tokk a stab at hit and heres what i came up with
intro:
e--1---1---0---0---|------------------|
b----3---3---3---3-|-0-2-3-2---2-3-2--|
g------------------|----------4-------|
d--0---0---0---0---|------------------|
a------------------|------------------|
e------------------|------------------|
Verse
e--------------------------------------|
b--------------------------------------|
g---4--6--7----------------------------|
d---4--6--7----------------------------|
a---2--3--5----------------------------|
e--------------------------------------|
*strum each of the above chords 3 or 4 times i forget just listen to the album to figure
it out.
and thats the whole song
pretty easy shit eh?
any correction or anything like that problem maybe you wanna bitch or something....
e-mail me [email protected]


Ваше мнение



Капча