1ѕ"Get Your Gunn" ny Marilyn Manson
Source: Get Your Gunn single

I noticed that Michael Gartley's and Adam Winik's versions of this
song are a little different than mine. I tabbed mine off Manson's
single- which apperas to sound a little different than the portrait
version. I hope this will help you all!

"Get Your Gunn"- single ver. by Marilyn Manson

Introduction:

D-------------|-----------0-|-------------|-----------0-|
A---7---5/1---|---7---5/1---|---7---5/1---|---7---5/1---|
E-0--0------3-|-0--0--------|-0--0------3-|-0--0--------|

Riff:

D--2-2-2-2-2-2|
A--2-2-2-2-2-2|
E--0-0-0-0-0-0|
^-This is the main riff, and it is played faintly in the back.

Chorus (Power Chords)
G-999/333----------|999/333-/101010--|
D-999/333-55555/666|999/333-/101010--|
A-777/111-55555/666|777/111-/8 8 8 --|
E---------33333/444|---------- - - --|
:REPEAT

"Get Your Gunn....."lyrics=

D--2--2--2-/+--|--2--2--2-/+--|
A--2--2--2-/+--|--2--2--2-/+--|
E--0--0--0-/+--|--0--0--0-/+--|
REPEAT, then do Power Chords again.

Notation:
/+ = slide fingers up the neck
7/9 = slide from the 7th fret to 1st.

There you go! Enjoy!
John Krattenmaker

ds)
G-999/333----------|999/З


Ваше мнение



Капча

Рекомендуем