Date: Fri, 12 Apr 1996 19:30:28 -0600
From: "JAMES M. HARRISON"
Subject: "Dogma" Marilyn Manson, Portrait of an American Family
The first part is really easy:
Low E|---33333---555555----222222---00000--|
^ ^
This isn't the number of times-listen to the song
the next part goes
5|--5-5--5-5---7-7--7-7--4-4--4-4--2-2--2-2--|
6|--3-3--3-3---5-5--5-5--2-2--2-2--0-0--0-0--|
That part repeats some, again listen to the song
then on this part, the notes go right along with the
words, and it is played kind of fast w/some funky
distortion. It goes like this.
Good is noth- ing
5|--5-------7---------4--------2-------|
6|--3-------5---------2--------0-------|
That you fa- vor
5|--5-------7---------4---------2------|
6|--3-------5---------2---------0------|
It goes like that when he sings "Evil is your sour flavor" too
then the bridge to the solo goes
6|--3333333333333333--|
Then the solo is kindof yard to tab, it goes like this:
(Thes are ones and threes and fours, not elevens)
2|--1111111111111-3-11---444444444444-5-44--|
3|--2p0-- -|
1|-------------------------------------1--4--1--4-3-4----------|
2|--333333333333-4-33-----------------------------------|
Then the rest of the song is basically the first and 2nd
riff over and over again
Easy song,
Nathan Ezro, [email protected]
--
Registered ICC User
check out http://www.usefulware.com/~jfoltz


Ваше мнение



Капча

Рекомендуем