The first part is really easy:
Low E|---33333---555555----222222---00000--|
^ ^
This isn't the number of times-listen to the song
The next part goes
5|--5-5--5-5---7-7--7-7--4-4--4-4--2-2--2-2--|
6|--3-3--3-3---5-5--5-5--2-2--2-2--0-0--0-0--|
That part repeats some, again listen to the song
Then on this part, the notes go right along with the
Words, and it is played kind of fast w/some funky
Distortion. It goes like this.
Good is noth- ing
5|--5-------7---------4--------2-------|
6|--3-------5---------2--------0-------|
That you fa- vor
5|--5-------7---------4---------2------|
6|--3-------5---------2---------0------|
It goes like that when he sings "Evil is your sour flavor" too
Then the bridge to the solo goes
6|--3333333333333333--|
Then the solo is kindof yard to tab, it goes like this:
(Thes are ones and threes and fours, not elevens)
2|--1111111111111-3-11---444444444444-5-44--|
3|--2p0-- -|
1|-------------------------------------1--4--1--4-3-4----------|
2|--333333333333-4-33-----------------------------------|
Then the rest of the song is basically the first and 2nd
Riff over and over again

Main Riff(intro also)
-------------------------------------|three (G)
-------------------------------------|four (D)
-------------------------------------|five (A)
-33333x-55555x-22222x-00000x---------|six (E)
X=I'm not gonna tab the excact number, so listen to it and figure
It
Out yourself.
Then it goes
Riff B
----------------------------------------------|Three (G)
----------------------------------------------|Four (D)
5-5--5-5---7-7--7-7---4-4--4-4---2-2--2-2-----|Five (A)
3-3--3-3---5-5--5-5---2-2--2-2---0-0--0-0-----|Six (E)
Chorus
----------------------------------------------| 3 g
-5-7-4-2--5-7-4-2---5-7-4-2--5-7-4-2----------| 4 d
-5-7-4-2--5-7-4-2---5-7-4-2--5-7-4-2----------| 5 a
-3-5-2-0--3-5-2-0---3-5-2-0--3-5-2-0----------| 6 e
Good is not-hing that you fa-vor...
-5- -7- -4- -2- -5- -7- -4- -2-
-5- -7- -4- -2- -5- -7- -4- -2-
-3- -5- -2- -0- -3- -5- -2- -0-
Then the only soloish part I kindof know comes up right after the
First chorus-
Solo:
---------------------------------------------------|string 1 e
-111111111111311-444444444444544-333333333333433---|srting 2 b
-2-------------------------------------------------|string 3 g
Continued
-1--3--1--3--2-3----------------------------------|string 1 e
I don't really know about that part, but it's pretty close.
INTRO...
RIGHT AFTER THE INTRO RIFF B STARTS IN...
Burn the witches, burn the witches, don't take time to sew the
Stiches, burn the witches, burn the witches (ahh)
CHORUS RIFF
Good is nothing that you favor, evil is your sour flavor
YOU CANNOT SEDATE ALL THE THINGS YOU HATE
SOLO RIFF...
MAIN RIFF AND RIFF B AFTER MAIN RIFF...
Burn your bridges, burn your bridges, don't take time to sew your
Stitches, burn your bridges, burn your bridges (ahh)
CHORUS RIFF
Good is nothing that you favor, evil is your sour flavor
I DON'T NEED YOUR HATE, I DECIDE MY FATE
YOU CANNOT SEDATE, ALL THE THINGS YOU HATE.
Well there you have it, work on the end of the song yourself, but
Those are all the riffs you need.
Transcripted (tabbed) by Nathan Ezro [email protected]
FEEL FREE TO MAIL ME
From [email protected] Sun Mar 17 05:54:43 1996
Received: from post-office.nevada.edu (post-office.nevada.edu [131.216.1.11]) by mailhost.tcs.tulane.edu (8.6.12/8.5) with ESMTP id XAA13518; Sat, 16 Mar 1996 23:54:41 -0600
Received: from mail-e2b-service.gnn.com (mail-e2b-service.gnn.com [204.148.102.170]) by post-office.nevada.edu (8.6.12/8.6.4) with ESMTP id VAA17776 for ; Sat, 16 Mar 1996 21:51:10 -0800
Received: from www-40-155.gnn.com. (www-40-155.gnn.com [205.188.40.155]) by mail-e2b-service.gnn.com (8.7.1/8.6.9) with SMTP id AAA27050 for ; Sun, 17 Mar 1996 00:50:13 -0500 (EST)
Message-Id:
X-Mailer: GNNmessenger 1.2
Mime-Version: 1.0
Content-Type: text/plain; charset="us-ascii"
Date: Sat, 16 Mar 1996 22:51:40
From: [email protected] (james harrison)
To: [email protected]
Subject: TAB: Dogma by Marilyn Manson
X-email-warning: As a cautionary note, there have been recent instances of
people forging mail addresses. If you have any reason to believe
this message is not authentic, please contact the listed sender or
System Computing Services at (702) 895-4585.
Status: RO
This song is from MM's album "Portrait of an American Family"
The whole song is in palm-muting(basically)
Main Riff(intro also)
-------------------------------------|three (G)
-------------------------------------|four (D)
-------------------------------------|five (A)
-33333x-55555x-22222x-00000x---------|six (E)
X=I'm not gonna tab the excact number, so listen to it and figure
It
Out yourself.
Then it goes
Riff B
----------------------------------------------|Three (G)
----------------------------------------------|Four (D)
5-5--5-5---7-7--7-7---4-4--4-4---2-2--2-2-----|Five (A)
3-3--3-3---5-5--5-5---2-2--2-2---0-0--0-0-----|Six (E)
Chorus
----------------------------------------------| 3 g
-5-7-4-2--5-7-4-2---5-7-4-2--5-7-4-2----------| 4 d
-5-7-4-2--5-7-4-2---5-7-4-2--5-7-4-2----------| 5 a
-3-5-2-0--3-5-2-0---3-5-2-0--3-5-2-0----------| 6 e
Good is not-hing that you fa-vor...
-5- -7- -4- -2- -5- -7- -4- -2-
-5- -7- -4- -2- -5- -7- -4- -2-
-3- -5- -2- -0- -3- -5- -2- -0-
Then the only soloish part I kindof know comes up right after the
First chorus-
Solo:
---------------------------------------------------|string 1 e
-111111111111311-444444444444544-333333333333433---|srting 2 b
-2-------------------------------------------------|string 3 g
Continued
-1--3--1--3--2-3----------------------------------|string 1 e
I don't really know about that part, but it's pretty close.
INTRO...
RIGHT AFTER THE INTRO RIFF B STARTS IN...
Burn the witches, burn the witches, don't take time to sew the
Stiches, burn the witches, burn the witches (ahh)
CHORUS RIFF
Good is nothing that you favor, evil is your sour flavor
YOU CANNOT SEDATE ALL THE THINGS YOU HATE
SOLO RIFF...
MAIN RIFF AND RIFF B AFTER MAIN RIFF...
Burn your bridges, burn your bridges, don't take time to sew your
Stitches, burn your bridges, burn your bridges (ahh)
CHORUS RIFF
Good is nothing that you favor, evil is your sour flavor
I DON'T NEED YOUR HATE, I DECIDE MY FATE
YOU CANNOT SEDATE, ALL THE THINGS YOU HATE.
Well there you have it, work on the end of the song yourself, but
Those are all the riffs you need.
Transcripted (tabbed) by Nathan Ezro [email protected]
FEEL FREE TO MAIL ME


Ваше мнение



Капча

Рекомендуем