Martlin Manson - Disposable Teens

Drop D Tuning (DADGBE)

Intro: (repeat)
E|---------------------------
B|---------------------------
G|7-7-5-7-10-7--7-7-5-7-7-XXX
D|7-7-5-7-10-7--7-7-5-7-7-XXX
A|5-5-3-5--8-5--5-5-3-5-5-XXX
D|---------------------------

Post intro riff:
E|-------------------------------
B|-------------------------------
G|-------------------------------
D|00X-XX0000XXXXXX-00X-XX00003353
A|00X-XX0000XXXXXX-00X-XX00003353
D|00X-XX0000XXXXXX-00X-XX00003353
This should be right.

Intro riff is played while Mansons says "yea yea yea yea yea yea" it is also the chorus riff.

When Manson sings "we're disposable teens" you play the post chorus riff

high riff
E|10/16~~~~~
B|----------
G|----------
D|----------
A|----------
D|----------

"the more that you fear us, the bigger we get"
E|-----------------------------
B|-----------------------------
G|5-5-5-5-5-5-5-5-5-5-5-5-5-6-7
D|5-5-5-5-5-5-5-5-5-5-5-5-5-6-7
A|3-3-3-3-3-3-3-3-3-3-3-3-3-4-5
D|-----------------------------
You might have to play more threes/fives than I put, you'll figure it out.


Ваше мнение



Капча

Рекомендуем