Band: Marilyn Manson
Song: Disposable Teens
Album: Holy Wood
Instrument: Bass
Tabbed By: Jetplane
G------------------------------------------------
D------------------------------------------------
A--5--5--3--5-8-8-5------5--5--3--5------
E-------------------------------------------------
G-----------------------------------------------------------------------------
-
D-----------------------------------------------------------------------------
-
A--5---------------5-5----------------5---------------5-5---5-8-8-8-----
E-----------------------------------------------------------------------------
--
G-------------------------------------------------------------------
D--------------------------------------------------------------------
A------------------3-3-3-3-3-3-3-3-3-3-3-3-3-3-3-3-------
E--------------------------------------------------------------------
Band: Blink 182
Song: A New Hope
Album: Dude Ranch
Instrument: Bass
Tabbed By: Jetplane
G-------------------------------------------------
D-------------------------------------------------
A----------------------------3333-5555------------
E--33333333-5555-3333-00000000----------------------
G:---------------------------------------------------------------
D:---------------------------------------------------------------
A:-----3333-5555-------------------------3333-5555----
E:3333---------------------------0000-----------3----------
G:-------------------------------------------------
D:-------------------------------------------------
A:-------3333-3333-5555-5555-----------
E:-------------------------------------------------
G-------------------------------------------------
D-------------------------------------------------
A-------------------------------------------------
E---------3333-5-3333-2--------------------
G---------------------------------------------------------------
D-----------------------------------------------------------------
A---------3333-3333-5555-7777-------------------------
E----------------------------------------------------------------
G--------------------------------------------------------------------
D----------------------------------------------------------------------
A--------3333-5555-3333-7-77-555-------------------------
E---------------------------------------------------------------------
G-----------------------------------------------------
D-----------------------------------------------------
A-3333-5-7----------------------------------------
E----------3-----------------------------------------
listen to the song to figure out how many times to play each riff.
Band: NOFX
Song: Monosyllabic Girl
Album: So Long and Thanks for all the Shoes
Instrument: Bass
Tabbed By: Jetplane
G------------------------------------------
D-------5-5-5-3-3-5-5-5-5----------
A-3-3-3---------------------------------
E-----------------------------------------
VERSE-
G----------------------------------------------------------
D---------2-2-2-2---------3-3-3-3----5-3-5-5-5---
A-3-3-3-3---------0-0-0-0----------3----------------
E----------------------------------------------------------
G----------------------------------
D-------2------3------6----------
A----3-----------------------------
E----------------------------------
CHORUS-
G---------------------------------
D-----2-2-3-3-6-6-6-6-3-3-5-5-5---
A-3-3---------------------------2
E---------------------------------


Ваше мнение



Капча

Рекомендуем