Marilyn Manson - Deformography
Submitted By: TWIGGy5
EMail: [email protected]
Guitarist: Twiggy Ramirez + Trent Reznor
Album: Antichrist Superstar
Dif.: 7
Tabbed by TWIGGy5
NOTE: Tune to Drop D (D A D G B E)
Verse (Gtr. 1) (“Into hard…….”)
D|-9-9--8-82--2-2--0-2--(2)/5-| Я high D
^ hold till bracketed note then slide to 5
Verse 2 (Gtr. 1)
D|-9-9--8-82--2-2--0-2--(2)/5-| Я low D
^ hold till bracketed note then slide to 5
Chorus (Gtr. 1) (“You’re such a dirty…..”)
B|-11-----------|
G|-10(9x)-------|
D|--------10-10-|
A|--------10-10-|
D|--------10-10-|
Verse 2 (Synth. Arr for Gtr. 3)
B|-12-12-12-12-11-11-11----15-15-15-15-------------|
D|-------------------------------------14-12-14-12-|
Bridge (Gtr. 1)
D|-7-7-7-7-7---7-7-7-7-5-5--|
A|-7-7-7-7-7---7-7-7-7-5-5--|
D|-7-7-7-7-7---7-7-7-7-5-5--|
Bridge 2 (Gtr. 1)
D|-0-2-2-2-5---2-2-0--2-2-2--|
PM-----------------------|
Outro (Gtr. 2) (let first 2 chords ring)
D|-0-------1--------2-|
A|-0-------1--------2-|
D|-0-------1--------2-|
^ long slide
Song Structure: -
Effects
Verse - No Guitar (“When you wish upon your…….”)
Verse 1 (Gtr. 1)
Verse 2 - Just bass N Drums (“I fell into you…..”)
Verse 2 (“Lift you up like…”)
Chorus (Gtr. 1)
Verse 2 (Gtr. 3) (“You eat up my heart…..”)
Verse 2 (“I will bury your god….”)
Chorus (Gtr. 1)
Bridge (Gtr. 1)
Break (“You are the one….”)
Bridge 2 (Gtr. 1) (“You are the one…..”) 4th time
Bridge 2 (Gtr. 1)/Verse 2 (Gtr. 2) (“I lift you up….”)
Chorus (Gtr. 1)
Chorus (Gtr. 1)/Outro (Gtr. 2) (“I am the one….….”)
I am the one and waht you want is
Okay there you go… New and improved……. Little mixed up in this song.
The bass is very heavy. If you have any comments corrections or suggestions
email me at [email protected]
=========== song: deformography
band: marilyn manson
guy tabbing: jacob wall
drop d-tuning
riff 1 (it kinda sounds like theres a little wah-wah in this one)
e||-----------------------------------||
B||-----------------------------------||
G||-----------------------------------||
D||-----------------------------------||
A||--2---2---1---1--------------------||
D||------------------2---2---0--2--5--||
riff 2 (distortion)
e||-----------------------------------||
B||-----------------------------------||
G||--4---4---3---3--------------------||
D||--4---4---3---3---2---2---0--2--5--||
A||--2---2---1---1---2---2---0--2--5--||
D||------------------2---2---0--2--5--||
riff 3 (chorus riff: its in the background of that weird keyboard
part)
e||-----------------------------------||
B||-----------------------------------||
G||--9-9-9-9-9-9-9-9-9-9-9-9---5-5-5--||
D||--9-9-9-9-9-9-9-9-9-9-9-9---5-5-5--||
A||--7-7-7-7-7-7-7-7-7-7-7-7---3-3-3--||
D||-----------------------------------||
riff 4 (major distortion and this maybe wrong)
e||---------------------------------||
B||---------------------------------||
G||----------9-----9-9-9-9-9-7-7-7--||
D||--7-7-7-7-9-----9-9-9-9-9-7-7-7--||
A||--7-7-7-7-7-----7-7-7-7-7-5-5-5--||
D||--7-7-7-7-7-----7-7-7-7-7-5-5-5--||
riff 5 (palm mute the whole riff. it appears near the last chorus)
e||---------------------------||
B||---------------------------||
G||---------------------------||
D||---------------------------||
A||---------------------------||
D||--0-2-2-2-5-2-2-0---2-2-2--||
there it is. kickass riffs but not one of their better songs
more marilyn manson riffs along the way. enjoy


Ваше мнение



Капча

Рекомендуем