Cyclops
by: Marilyn Manson
tabbed by: Fred [email protected]
G-|---------------------------------------------|
D-|---------------------------------------------|
A-|---------7-----7-----7---------5-----5-----5-|
E-|-5-5-5-5---5-5---5-5---5-5-5-5---5-5---5-5---|
Intro
G-|-----------------------------5----|
D-|-------------5--------------5----|
A-|-------------7--------------3----|
E-|-0-0-0-0-2-0-----0-0-0-0-2-0------|
Main riff

G-|--------------------------|--------------------------|
D-|-*------7-------7-7-5----*|----------------7-7-8-9---|
A-|-*------------7-------7--*|--------7-----7-----------|
E-|----5-5---5-5-------------|--5-5-5---5-5-------------|
chorus this is a fill that is played at odd times

G-|------------------------|-----------------------------------------------|
D-|-----------------------*|---------------------3-------------7-7-7-5-----|
A-|-----------------------*|-------------3-3-3-5-----------------------7---|
E-|-5-5-5-5-5---5-5-5-5-5--|-0-0-0-0-2-0-----------0-0-0-0-2-0-------------|
played during quite part


Ваше мнение



Капча

Рекомендуем