This song is the best next to Come White.
Intro
Lead guitar
-3----3----3----3-----3-----5------
---5----5----5----5-----5-----5----
-----4----4---------4-----4-----4--
-----------------------------------
-----------------------------------
-----------------------------------
Intro
Guitar 2
---------------------
---------------------
---------------------
-9----12----7----5---
-7----10----5----3---
---------------------

I burend all the good things in the eden eye...
(Listend to the song when you play this part, you will get it)
-------------------------
-----0---------------0---
---5---5---5/4/5---5-----
-7-------7-------7-----7-
-------------------------
-------------------------

Chours
(Please don't ask me how many times play on every chord)
-----------------
-----------------
-----------------
-2--5--7--5------
-2--5--5--3------
-0--3------------

We would have told...
------------
--0--0--0---
-3--3--3----
------------
------------
------------

Her heart of blood staiend egg...
-2222223--2222223--22220002------
---------------------------------
---------------------------------
---------------------------------
---------------------------------
---------------------------------


Ваше мнение



Капча

Рекомендуем