TUNING: drop d (D-A-D-G-B-E)

RIFF 1: (0:11)
E|-------------|
B|-------------|
G|-------------|
D|---x-x-x-x---|
A|---x-x-x-x---|
D|---x-x-x-x---|
RIFF 2: (0:21)
E|-------------|
B|-------------|
G|-------------|
D|---0--3--0---|
A|---0--3--0---|
D|---0--3--0---|
RIFF 3: (0:31)
E|---------------------------------------------------|
B|---------------------------------------------------|
G|---------------------------------------------------|
D|----0--3--0-----0--6--0--6--0-----0--6--0--6--0----|
A|----0--3--0-----0--6--0--6--0-----0--6--0--6--0----|
D|----0--3--0-----0--6--0--6--0-----0--6--0--6--0----|
RIFF 4: (1:11)
E|-------------------------------------|
B|-------------------------------------|
G|-------------------------------------|
D|-------------------------------------|
A|----5--------4--------3--------2-----|
D|-------------------------------------|
RIFF 5 / CHORUS: (1:25)
E|-------------------------------------------------|
B|-------------------------------------------------|
G|-------------------------------------------------|
D|----0--6--0--6--0----0--6--0--6--0----0--3--0----|
A|----0--6--0--6--0----0--6--0--6--0----0--3--0----|
D|----0--6--0--6--0----0--6--0--6--0----0--3--0----|
RIFF 6: (1:40)
E|-------------------|
B|-------------------|
G|-------------------|
D|-----x-x-x-3-0-----|
A|-----x-x-x-3-0-----|
D|-----x-x-x-3-0-----|
2:05 -- RIFF 5
2:18 -- RIFF 4
2:32 -- RIFF 5
2:47 -- RIFF 6
2:59 -- RIFF 5
RIFF 7: (3:25)
E|--------------------------------------------------|
B|--------------------------------------------------|
G|--------------------------------------------------|
D|----0--6--0--6--0----0--6--0--6--0--6--5--3--0----|
A|----0--6--0--6--0----0--6--0--6--0--6--5--3--0----|
D|----0--6--0--6--0----0--6--0--6--0--6--5--3--0----|


Ваше мнение



Капча

Рекомендуем