Marilyn Manson - Beautiful People

Drop D tuning

INTRO
e)--------------------------------------------------------------------|
b)--------------------------------------------------------------------|
g)--------------------------------------------------------------------|
d)--x--x--x--x--x----x--x--x--x--x----x--x--x--x--x----x--x--x--x--x--|
a)--x--x--x--x--x----x--x--x--x--x----x--x--x--x--x----x--x--x--x--x--|
D)--x--x--x--x--x----x--x--x--x--x----x--x--x--x--x----x--x--x--x--x--|
3X

e)--------------------------------------------------------------------|
b)--------------------------------------------------------------------|
g)--------------------------------------------------------------------|
d)--x--x--x--0--3--0--x--x--x--x-----x--x--x--x--x-----x--x--x--x--x--|
a)--x--x--x--0--3--0--x--x--x--x-----x--x--x--x--x-----x--x--x--x--x--|
D)--x--x--x--0--3--0--x--x--x--x-----x--x--x--x--x-----x--x--x--x--x--|
4X

e)--------------------------------------------------|
b)--------------------------------------------------|
g)--------------------------------------------------|
d)----0--3--0-----0--6--0--6--0-----0--6--0--6--0---| 4x
a)----0--3--0-----0--6--0--6--0-----0--6--0--6--0---|
D)----0--3--0-----0--6--0--6--0-----0--6--0--6--0---|

VERSE
e)--------------------------------------------------------------------|
b)--------------------------------------------------------------------|
g)--------------------------------------------------------------------|
d)--0--3--0--x--x--x--x----x--x--x--x--x----x--x--x--x--x----x--x--x--|
a)--0--3--0--x--x--x--x----x--x--x--x--x----x--x--x--x--x----x--x--x--|
D)--0--3--0--x--x--x--x----x--x--x--x--x----x--x--x--x--x----x--x--x--|
8X

BRIDGE
e)--------------------------------------------------------------------|
b)--------------------------------------------------------------------|
g)----7--7--7-7-7-----6--6--6-6-6-----5--5--5-5-5-----4--4--4-5-6-----|
d)--------------------------------------------------------------------|
a)----5--5--5-7-5-----4--4--4-6-4-----3--3--3-5-3-----2--2--2-3-4-----|
D)--------------------------------------------------------------------|
2X

CHORUS
e)--------------------|-----------------------------------------------|
b)--------------------|-----------------------------------------------|
g)--------------------|-----------------------------------------------|
d)--x--x--x--x--x--x--|--0--6--0--6--0-----0--6--0--6--0-----0--3--0--|
a)--x--x--x--x--x--x--|--0--6--0--6--0-----0--6--0--6--0-----0--3--0--|
D)--x--x--x--x--x--x--|--0--6--0--6--0-----0--6--0--6--0-----0--3--0--|
4X

e)--------------------------------------------------------------------|
b)--------------------------------------------------------------------|
g)--------------------------------------------------------------------|
d)--"The beautiful people, the beautiful people..."----x--x--x--3--0--|
a)-----------------------------------------------------x--x--x--3--0--|
D)-----------------------------------------------------x--x--x--3--0--|

OUTRO
e)--------------------------------------------------------------------|
b)--------------------------------------------------------------------|
g)--------------------------------------------------------------------|
d)----0--6--0--6--0-----0--6--0--6--0-----0--3--0-----0--6--0--6--0---|
a)----0--6--0--6--0-----0--6--0--6--0-----0--3--0-----0--6--0--6--0---|
D)----0--6--0--6--0-----0--6--0--6--0-----0--3--0-----0--6--0--6--0---|

e)-----------------------------|
b)-----------------------------|
g)-----------------------------|
d)--0--6--0--6--0--6--5--3--0--| 2X, then...
a)--0--6--0--6--0--6--5--3--0--|
D)--0--6--0--6--0--6--5--3--0--|

e)-----------------------------------------------|
b)-----------------------------------------------|
g)-----------------------------------------------|
d)--0--6--0--6--0-----0--6--0--6--0--6--5--3--0--| 4X
a)--0--6--0--6--0-----0--6--0--6--0--6--5--3--0--|
D)--0--6--0--6--0-----0--6--0--6--0--6--5--3--0--|

This order:
INTRO
VERSE
BRIDGE
CHORUS
VERSE
CHORUS
BRIDGE
CHORUS
OUTRO


Ваше мнение



Капча

Рекомендуем