song:the Beautiful People
artist:Manson
tabbed by:Ryan ([email protected])
tuning:EADG
Very easy song. The whole thing is pretty much the same.
Along w/ guitar play 4x
G-------------------------------
D-------------------------------
A-------------------------------
E-0-2-0-------------------------
Main Riff play 11x
G-------------------------------
D-------------------------------
A-------------------------------
E-0-4-0-4-0-0-4-0-4-0-0-2-0-----
G-------------------------------
D-------------------------------
A-5-4-3-2-5-4-3-2---------------
E-------------------------------
Chorus(same as Main Riff)play 4x
G-------------------------------
D-------------------------------
A-------------------------------
E-0-4-0-4-0-0-4-0-4-0-0-2-0-----
play 8x
G-------------------------------
D-------------------------------
A-------------------------------
E-0-4-0-4-0-0-4-0-4-0-0-0-0-2-0-
Chorus play 4x
G-------------------------------
D-------------------------------
A-------------------------------
E-0-4-0-4-0-0-4-0-4-0-0-2-0-----

G-------------------------------
D-------------------------------
A-5-4-3-2-5-4-3-2---------------
E-------------------------------
chorus
G-------------------------------
D-------------------------------
A-------------------------------
E-0-4-0-4-0-0-4-0-4-0-0-2-------
play 4x
G-------------------------------
D-------------------------------
A-------------------------------
E-0-0-0-2-0---------------------
play until end
G-------------------------------
D-------------------------------
A-------------------------------
E-0-4-0-4-0-0-4-0-4-0-0-2-0-----


Ваше мнение



Капча

Рекомендуем