Song: Antichrist Superstar
Artist: Marilyn Manson
Album: Antichrist Superstar
tabbed by: LivingdeadFreek
Tuning Droped D & 1/2 step

(Intro)
e---------------------------------
B---------------------------------
G---------------------------------
D---------------------------------
A---2-2--------------------------
D---2-2--------------------------
HEY!
(Riff 1)
e--------------------
B--------------------
G--------------------
D--------------------
A---0-0-2-0--5^--
D---0-0-2-0--5^--
(Riff 2)
e--------------------
B--------------------
G--------------------
D--------------------
A---0-0-2-0-7-5-3
D---0-0-2-0-7-5-3
(Riff 3)
e-----------------
B-----------------
G-----------------
D-----------------
A---0-0-2-0----
D---0-0-2-0----
(Riff 4)
e--------------------
B--------------------
G--------------------
D---5-5-4-3--------
A---5-5-4-3-- 0-0-2-0-0-2-0
D---------------0-0-2-0-0-2-0
[song structure]
INTRO x8
RIFF 1 x3
RIFF 2 x1
RIFF 1 x3
RIFF 2 x1
RIFF 3 x16
RIFF 1 x3
RIFF 2 x1
RIFF 4 x4
RIFF 2 x3
RIFF 3 x16
RIFF 1 x3
RIFF 2 x1
RIFF 1 x3
RIFF 4 x4
INTRO x17
RIFF 4 x8
INTRO x16


Ваше мнение



Капча

Рекомендуем