Band: Marilyn Manson
Song: Angel with Scabbed Wings
Album: Anti-Christ Superstar
Tuneing: E A D G B E
Intro: Gtr.1 Play past the first bar 11x
Fig.1
--------|-----------||
--------|-----------||
--------|----------.||
--------|----------.||
--3-4-5-|-2-3-4-53-||
--1-2-3-|-0-1-2-31-||
(Inro continued)Gtr.1 play this 8x Gtr.2 Play on forth time of Fig.2
Fig.2 Fig.3
--------------------| ------------------------------|
--------------------| --4~-9^-8^-11^-10-9-10-9-3----|
--------------------| ------------------------------|
---------8----------| ------------------------------|
--3-2-xxx7-xx-xx----| ------------------------------|
--1-0-xxx--xx-xx----| ------------------------------|
Verse 1:Gtr.1 play till end of verse 1
Fig.4
--------------------| Verse 1: It's the angel with the scabbed wings,
--------------------| hard drug face, wanna powder his nose,
--------------------| he will deflower the freshest cropdrop up with his
--------------------| rock and roll sores,rock and roll sores,
--------------------| rock and roll sores,
--1-0-xxx-1-xx-xx---|
Verse 2:Gtr.1 play till end of verse 2
--------------------| Verse 2: Dead is what he is,he does what,
--------------------| he plays with things,
--------------------| that he is what your never gonna see,
--------------------| what your never gonna be,
--3-2-xxx-x-xx-xx---| scared of little me,When your looking past people,
--1-0-xxx-x-xx-xx---| you don't wanna see if you only wanna be him,
cut this tight rope gotta let it go,
look at these people he sewed,
Chorus:Gtr.1 and 2 play till end of chorus
-----------------------|
-----------------------| Chorus:He is the maker,he is the taker,
-----------------------| he is a savior,he is the raper,
-----------------------|
--2--3--444-44-44-44---|
--0--1--222-22-22-22---|
pm.........
Interlude:Gtr.1 play 4x(between the bar lines)
------|------------||------|
------|------------||------|
------|-----------.||------|
------|-----------.||------|
--4-3-|--2-3-4-53-||-2----|
--2-1-|--0-1-2-31-||-0----|
Verse 3:Gtr.1 play till end of 3rd verse
-------------------| Verse 3:(same as 1rst verse)
-------------------|
-------------------|
-------------------|
--2-3-4-53--------|
--0-1-2-31--------|
Chorus:Gtr.1 and Gtr.2 play till end of chorus
----------------------|
----------------------| Chorus:(same of course)
----------------------|
----------------------|
--2--3--444-44-44-44--|
--0--1--222-22-22-22--|
pm.........
Verse 4:Gtr.1 repeat till end of verse 4
----------------|
----------------| Verse 4:Get back your never gonna leave him,
----------------| get back your always goona please him,
----4-3---------| get back your never gonna leave him,
--2-2-1-4-3-2---| get back your always gonna please him,
--0-----2-1-0---|
Outro:Gtr 1 play this a couple of times
----------------|
----------------|
----------------|
----------------|
----------------|
--1-0xxx-1xx-xx-|
(Outro continued)Gtr.1 play till end
----------------|
----------------|
----------------|
--------8-------|
--3-2xxx7xx-xx--|
--1-0xxx-xx-xx--|
If any body has any questions or what ever e mail [email protected]


Ваше мнение



Капча

Рекомендуем