Song:A Place In The Dirt, Holy Wood CD
Tabbed By:Mariojohnl5
[email protected]
Turning:Standard
*:Play 8 times

Intro
1|----19---15---19---15---|---------------|---19--17--15--14---|
2|------------------------|--12----12-----|--------------------|
3|------------------------|-----11----11--|--------------------|
4|------------------------|---------------|--------------------|
5|------------------------|---------------|--------------------|
6|------------------------|---------------|--------------------|
Verse
* * * * * * * *
1|----2----2----2----2----2----0----3----2--|
2|----3----2----3----2----3----2----0----2--|
3|----4----3----4----3----4----2----0----3--|
4|----4----4----4----4----4----2----0----4--|
5|----2----4----2----4----2----0----2----4--|
6|---------2---------2--------------3----2--|

Chorus
1|--------------------------|
2|--------------------------|
3|--------------------------|
4|----3----------6----------| Repeat 3times Then....
5|----3-6times---6-6times---|
6|----3----------6----------|
1|--------------------------|
2|--------------------------|
3|--------------------------|
4|----3--------2------------|
5|----3-6times-2-5times-----|
6|----3--------2------------|
Verse 2
1|----2----2----2----2----2----0----3----2--|
2|----3----2----3----2----3----2----0----2--|
3|----4----3----4----3----4----2----0----3--|
4|----4----4----4----4----4----2----0----4--|
5|----2----4----2----4----2----0----2----4--|
6|---------2---------2--------------3----2--|
* * * * * * *
Chorus

1|---------------------------|
2|---------------------------|
3|---------------------------|
4|----3--------6-------------| Repeat 3times then.....
5|----3-6times-6-6times------|
6|----3--------6-------------|
1|---------------------------|
2|---------------------------|
3|---------------------------|
4|----3--------2-------------|
5|----3-6times-2-5times------|
6|----3--------2-------------|
Outro
* * * * * * * *
1|----2----2----2----2----2----0----3----2--|
2|----3----2----3----2----3----2----0----2--|
3|----4----3----4----3----4----2----0----3--|
4|----4----4----4----4----4----2----0----4--|
5|----2----4----2----4----2----0----2----4--|
6|---------2---------2--------------3----2--|
That's all, Not So Hard but Very Easy.
If you see any wrong in this tab please contact me.
Comments to:[email protected]


Ваше мнение



Капча

Рекомендуем