1996 by Marilyn Manson
Guitarist: Twiggy Ramirez
Album: Antichrist Superstar
Dif.: 6
Tabbed by Twiggy5

Intro
B|-------------------------------------0-----0----|
G|-------------------------------------0-----0----|
D|-5--0---0--2---0--0--0---0--2----0-----4--------|
A|-4--0---1--3---0--0--1---0--3----0-----5--------|

Verse 1
D|-2--2--5-7--8--8--8--7--5--|
A|-2--2--5-7--8--8--8--7--5--|
E|-0--0--3-5--6--6--6--5--3--|

Chorus
G|---------------------------9--12--7--9-----|
D|-2--5--8--7--22222--9--12--7--9--22222-----|
A|-2--5--8--7--22222--7--10--5--7--22222-----|
E|-0--3--6--5--00000------------------00000--|
pm-----| pm------|

Riff 1
G|-----------------------------------------------------------|
D|--------------------5-5-5-5-5------------------------------|
A|-5/7-7-7--5/7-7-------------5/7-7-7-7-7--------------------|
E|-----------------------------------------------6-6-6-6-6---|

Verse 2
G|------------------------|
D|---------8--8--8--7--5--|
A|---------8--8--8--7--5--|
E|---------6--6--6--5--3--|

Riff 2
G|-9-------7/9---9---------12--------14---------15--------17----------|
D|-x--------x------x----------x-----------x-----------x----------x----|
A|-7(16x)-5/7---7(16x)--10(16x)--12(10x)--13(4x)--15/-----------------|
e|--------------------------------------------------------------------|

Song Structure:
Intro
Verse 1 (w/o lyrics)
Break
Verse 1 (w/ lyrics)
Chorus
Verse 1, Riff 1
Verse 2
Verse 1
Chorus
Verse 1
Random piking, scratching shit
Verse 1, Riff 2
Rest
Chorus
Random piking, scratching shit again

There..... The best fucking song on the album... So fast so heavy.. so ohhhh.. I’m
gonna go play it right now.... Any comments, corrections or suggestions email me at
[email protected]


Ваше мнение



Капча