Received: from animal-farm.nevada.edu by redrock.nevada.edu (5.65c/M1.4)
with SMTP id ; Wed, 6 Oct 1993 05:21:56 -0700
Received: from sysc.CSC.PeachNet.EDU by animal-farm.nevada.edu id ; Wed, 6 Oct 1993 05:21:51 -0700
Received: from zodiac.csc.peachnet.edu by SYSC.csc.PeachNet.EDU with SMTP
(5.59/LAI-3.2) id AA06897; Wed, 6 Oct 93 08:22:59 EDT
Received: From AA/WORKQUEUE by zodiac.csc.peachnet.edu
via Charon-4.0-VROOM with IPX id 100.931006082244.288;
06 Oct 93 08:23:04 +500
Message-Id:
To: [email protected], [email protected]
From: "Dan Newcombe"
Date: 6 Oct 93 08:22:39 EDT
Subject: TAB for Grendel by Marillion
Reply-To:
Priority: normal
X-Mailer: Pegasus Mail v2.3 (R4).

[I told someone I'd post this last week, so here it is...share and enjoy]

Okay, this is gonna be a PAIN as the song is 18+ minutes long!!!

I love the story of Beowulf and Marillion, and this is one of my favourite
songs, so I have tried to do my best on it.

Sure, there may be some parts that aren't correct, but it's better than
what was out there, which was nothing. If I receive any flames I will
forward them to the postmaster at your site along with a complaint. :)
Nice advice/thanks/critisism is welcome though!

-Dan Newcombe
[email protected]
+++++++++++++++++++++++++++++++++++++++++++++++++++++++++++++++++++++++++++++++

A little guide to some of my own notations:

6 lines of ---- are guitar tab (From top to bottom E B G D A E)
5 lines of ---- are keyboards (yeah, it's a guitar group, but there
are more flames and discussions so at least this is
music :)
For Key music - & is treble cleff, ) is bass clef and o is a note,
listen to the music for the length/beat/other.

And Now...
-=-=-=-=-=-=-=-=-=-=-=-=-=-=-=-=-=-=-=-=-=-=-=-=-=-=-=-=-=-=-=-=-=-=-=-=-=-=-=-
Grendel by Marillion (from B-Sides Themselves)
as heard by Dan Newcombe ([email protected] for now)

Guitar Riff A: Intro (Played Twice)
----------0------------2-3-2h3p2p0---2-0-2-----0-2-0------0-2-0----------
--0---2h3---3-0---0----------------3-------2---------3-2--------3-2------
----------------2--------------------------------------------------------
-----------------------0-------------------------------------------------
-----------------------------------4-------------------------------------
-------------------------------------------------------------------------

--------0-2-3-2-------------
--0-2-3---------3-2h3p2-0---
----------------------------
----------------------------
----------------------------
----------------------------

Guitar Riff B (Mainly just chords, one note at a time.)
(This is how I play it.)
Bm A
--------------------0------------------------------0-----------------------
-----------3-----------3----3---------------2--------2-----2---------------
--------4----4-----------4----4-----------2---2--------2-----2-------------
-----4----------4---------------4-------2-------2--------------2-----------
--2-----------------------------------0------------------------------------
---------------------------------------------------------------------------

G F#
-------------3------------------------------2------------------------------
---------------0------0-----------------------4-----4----------------------
-------0---------0------0-------------3---------3-----5--------------------
-----0---0----------------0---------4---4---------------4------------------
---2-------0----------------------4-------4--------------------------------
-3------------------------------2------------------------------------------

Keyboard: Main Rythym A (lightly, in the background)
B | A | G | F#



Ваше мнение



Капча

Рекомендуем