#----------------------------------PLEASE NOTE---------------------------------#
#This file is the author's own work and represents their interpretation of the #
#song. You may only use this file for private study, scholarship, or research. #
#------------------------------------------------------------------------------##
Received: from animal-farm.nevada.edu by redrock.nevada.edu (5.65c/M1.4)
with SMTP id ; Mon, 5 Apr 1993 01:47:45 -0700
Received: from kunrc1.urc.kun.nl by animal-farm.nevada.edu id ; Mon, 5 Apr 1993 01:47:26 -0700
Received: from AZNVX1.AZN.NL (AZNVX1) by KUNRC1.URC.KUN.NL (PMDF #12484) id
; Mon, 5 Apr 1993 10:47 MET
Date: Mon, 5 Apr 93 10:47 MET
From: Jeroen van der Laak
Subject: File: Going under - Marillion
To: [email protected]
Message-Id:
X-Envelope-To: [email protected]
X-Vms-To: @JAMESB
X-Vms-Cc: PA_ELEC
Comments: Sent using PMDF-822 V3.1, routing is done by KUNRC1
Hello James, another one for Nevada. Mail any comments, corrections
etc. to Jeroen van der Laak .
Notes on the sixth string are actually played on bass, but I added
them for solo guitar.
Going under - Marillion
(from the album Clutching at straws, 1987)
Chords used and the way they are played:
D1 |D2
-10----------10----------|-------------------------|
----10----------10-------|----10----------10-------|
-------11----------11----|-11----11----11----11----|
----------12----------12-|----------12----------12-|
-------------------------|-------------------------|
-10----------10----------|-10----------10----------|
G |F#min |Amin
-----------------|-2-------2-------|-5-------5-------|
-3-------3-------|---2-------2-----|---5-------5-----|
---4-------4-----|-----2-------2---|-----5-------5---|
-----5-------5---|-------4-------4-|-------7-------7-|
-------5-------5-|-----------------|-----------------|
-3-------3-------|-2-------2-------|-5-------5-------|
D1 D2 D1
D2 D1 D2
Is it wrong to talk to myself even when there's nobody else?
D1 D2 F#min G Amin
I'm just checking out that I've not gone under the water or thrown on
F#min D1 D2 D1 D2
the beach like a seal ready for slaugther
D1 D2
Can't you understand that the way things were planned
D1 D2 F#min G
it never worked out so I just went crazy
Amin F#min D1 D2 D1
I took to the drink like something says it's 'maybe'
D2 D1 D2
I ain't got no excuse and that's really the news
D1 D2 F#min G Amin
I got nothing else to say except it's my way, it's always my way
F#min D1 D2 D1
I seem to be running away so often
D2 D1 D2
I'll try anything once and that's the way we should be
D1 D2 F#min
but it's always the same getting caught up again in a habit
G Amin F#min D1 D2
a habit, that I just can't shake off, the way it always turned out
(small interlude)
D2 D1 D2
Can you understand it's the way I choose to be
D1 D2 F#min G
everything seems so easy this way, but I'm going under, fast
Amin F#min D1 D2
I'm slipping away, am I so crazy?
Some more guitar picking, repeat several times
-------------------------
-10-------10-------------
----11-------11----------
-------12-------12-------
-------------------------
-10----------10----------
PS anyone for 'Today' by Jefferson Airplane?



Ваше мнение



Капча

Рекомендуем