#----------------------------------PLEASE NOTE---------------------------------#
#This file is the author's own work and represents their interpretation of the #
#song. You may only use this file for private study, scholarship, or research. #
#------------------------------------------------------------------------------#
Marillion - Afraid of Sunlight
===============================
Tabbed by Mike Cannon ([email protected])
Tab Explanation
===============
s Slide
h Hammer-on
p Pull-off
T Tap
B Bend the note to the fret after the B
R Release back to the originally bent note
A.H. Artificial Harmonic
m Palm Muted
// Trem Pick (Pick as fast as possible)
==============================
Fig. 1
======
e|-----------------|
B|-----3-------3---|
G|---2---2---0---0-|
D|-0-------4-------|
A|-----------------|
E|-----------------|
Fig. 2
======
e|-----0-----------|
B|-------3-----3---|
G|---2-------0---0-|
D|-0-------4-------|
A|-----------------|
E|-----------------|
Fig. 3
======
e|-2~-------2----0---------2-------2~-|
B|----2~------0--0-0---------2-----2~-|
G|-------2~--------------3-----3---3~-|
D|---------------------3---------3-3~-|
A|-------------------3----------------|
E|------------------------------------|
Fig. 4
======
e|-------------------------------0-|
B|-----2-------4-------5-------4---|
G|---2---2---4---4---6---6---4-----|
D|-2-------4-------6-------4-------|
A|---------------------------------|
E|---------------------------------|
==============================
Intro (w/slow attack)
=====
e|-------------------------------------------------|
B|-12s10~-7b8r7------------10~---7s10s7------------|
G|-------------------7~-9~-----9--------9~-11s6s7~-|
D|--------------7~-9-------------------------------|
A|-------------------------------------------------|
E|-------------------------------------------------|
Verse 1 (w/Fig. 1 & 2)
=======
Drive the road to your surrender
Time comes around... out of my hands
Small boats on the beach at the dead of night
Come and go before first light
Leave me running in the wheel
King of the world
Bridge (w/Fig. 3)
======
How do you feel?
What is there to feel?
Chorus (w/Fig. 4)
======
So how do we now come to be
Afraid of sunlight?
Tell me girl why you and me
Scared of sunlight?
Break
=====
e|----------------------------|
B|-3--------5p3p0-3~-3--------|
G|---0---2~------------0---2~-|
D|-----0-2~--------------0-2~-|
A|-------4-----------------4~-|
E|----------------------------|
Verse 2 (w/Fig. 1 & 2)
=======
Been in pain for so long
I can't even say what hurts anymore
I will leave you alone
I will deny
Bridge (w/Fig. 3)
======
I will leave you to bleed
I will leave you with your life
Chorus (w/Fig. 4)
======
So how do we now come to be
Afraid of sunlight?
Tell me girl why you and me
Scared of sunlight?
Interlude (w/Fig. 4)
=========
All your spirit rack abuses
Come to haunt you back by day
All your Byzantine excuses
Given time, given you away
Don't be surprised when daylight comes
To find that memory prick your thumbs
You'll tell them where we run to hide
I'm already dead
It's a matter of time
Chorus (w/Fig. 4)
======
So how do we now come to be
Afraid of sunlight
How do we now come to be
Afraid of sunlight*
Guitar Part (played behind vocals) *
===========
e|--------------------------------------|
B|-14~-14-12----------------------------|
G|-----------13b14r13-13----11----------|
D|-----------------------14-------11-14-|
A|-----------------------------14-------|
E|--------------------------------------|
e|----------------------------------------------|
B|----------------------------------------------|
G|----------------------------------------------|
D|----11-14----11h14p13p11h13h14p13p11h13h14s16-|
A|-14-------14----------------------------------|
E|----------------------------------------------|
A.H
e|------------------------------------|
B|------------------------------------|
G|----------------------14---------16-|
D|-14-16s18-18-16-18-18----14~-16~----|
A|------------------------------------|
E|------------------------------------|
e|----------------------------------------|
B|-17p15p14h15h17p15p14-------------------|
G|----------------------16p14p13----------|
D|-------------------------------16p14p12-|
A|----------------------------------------|
E|----------------------------------------|
e|-------------------------------------------|
B|-------------------------------------------|
G|-------------------------------------14-13-|
D|----------------------------------16-------|
A|-16p14p12----------------12-14s16----------|
E|----------16p14p12-14s16-------------------|
e|----------16b17r16-------17h19s21-----|
B|-------17----------17-14----------19~-|
G|-14s16--------------------------------|
D|--------------------------------------|
A|--------------------------------------|
E|--------------------------------------|
e|---------------------------------------|
B|---------------7-9b10r9----------------|
G|-6-6~-9-6~-6s9----------9--------------|
D|--------------------------9-11-9-11----|
A|------------------------------------9~-|
E|---------------------------------------|
e|---------------------------------|
B|-----17----15----14----------17~-|
G|-s16----16----16----14-13--------|
D|--------------------------14-----|
A|---------------------------------|
E|---------------------------------|
Outro
=====
Day-Glo Jesus on the dash
Chalk marks on the road ahead
Friendly fire in hostile waters
Keep the faith
Don't lose your head
So how do we now come to be?
http://www.marillionmusic.co.uk



Ваше мнение



Капча

Рекомендуем