Marduk: Still Fucking Dead
tune to B
main intro riff:
|-------------------------------------------------------------|
|-------------------------------------------------------------|
|-------------------------------------------------------------|
|6666----5555-------------------------------------------------| x 4
|----8888----555566663333555555666633335555-------------------|
|------------------------------------------555566663333555555-|
riff b
|-----------------------------------------------------------------|
|-----------------------------------------------------------------|
|-----------------------------------------------------------------|
|-----------------------------------------------------------------| x 4
|-5-5-5-5-9-9-9-9-6-6-6-6-5-5-5-5-5-5-5-5-9-9-9-9-6-6-6-6-3-3-3-3-|
|-3-3-3-3-7-7-7-7-4-4-4-4-3-3-3-3-3-3-3-3-7-7-7-7-4-4-4-4-1-1-1-1-|
main verse
|--------------------------------|
|--------------------------------|
|----------4-------------------6-|
|-2--------4------4--------3---6-| x 8
|-2--------2------4--------3---4-|
|-0---------------2--------1-----|
riff C
|--------------------------------------------------------|
|--------------------------------------------------------|
|--------------------------------------------------------|
|-2---------------------------2-------------8-7~~--------| x 2
|-2---------7-5--8-7~~--------2---------7-5--------------|
|-0---------------------------0--------------------------|
riff D
|------------------------------------------|
|------------------------------------------|
|------------------------------------------|
|------------------------------------^-----| x 1
|-2--2--2--2---------66665555----33332-----|
|-0--0--0--0-33334444--------2222----------|
{ palm mute}
riff E(chorus)
|----------------------------------|
|----------------------------------|
|----------------------------------|
|-----------------------------3333-| x 4
|---------66666666----33332222-----|
|-33334444--------2222-------------|

riff F(bridge) after playing twice pedal next two times
|------------------------------------------| |------------|
|------------------------------------------| |------------|
|------------------------------------------| |------------| x 2
|-5------5--7------7--8------------7-------| |-----7------|
|-5------5--7------7--8--------8---5---7---| |-8---5---7--|
|-3------3--5------5--6--------6---5---5---| |-6---5---5--|
sl sl
play verse 6 times
riff C twice
riff G
|--------------------------------------------------|
|--------------------------------------------------|
|--------------------------------------------------|
|-----------7-----------------------7--------------| x 6
|-------0578--------------------0578---------------|
|-0--0---------0--0--3----0--0----------0--0--1----|
[ham] [ham]
play main intro riff 4 times
|-------------|
|-------------|
|------4------|
|-5----4---6--| end of song !
|-5----2---6--|
|-3--------4--|


Ваше мнение



Капча

Рекомендуем